chords
tabs
bass
ukulele keyboards
drums
flute
harmonica
guitar pro
video
Ultimate-Tabs

Save Me

Intro, Verse, and Instrumental Tab

     C                       Em
e|---------0-----------0-----------0-----------0-------|
B|-----1-----1-----1-----1-----0-----0-----0-----0-----|
G|-------0-----0-----0-----0-----0-----0-----0-----0---|
D|-----------------------------------------------------|
A|---3-----------3-----------2-----------2-------------|
E|-----------------------------------------------------|

     Am                      F
e|---------0-----------0-----------1-----------1-------|
B|-----1-----1-----1-----1-----1-----1-----1-----1-----|
G|-------2-----2-----2-----2-----2-----2-----2-----2---|
D|-----------------------------------------------------|
A|---0-----------0-----------3-----------3-------------|
E|-----------------------------------------------------|


End of Verse

     Am                      F           G
e|---------0-----------0-----------1-----------2-------|
B|-----1-----1-----1-----1-----1-----1-----2-----2-----|
G|-------2-----2-----2-----2-----2-----2-----0-----0---|
D|-----------------------------------------------------|
A|---0-----------0-----------3-----------2-------------|
E|-----------------------------------------------------|


Intro
C Em Am F


Verse 1
         C                  Em
Somebody save me, me from myself
           Am                F
I've spent so long living in hell
            C                       Em
They say my lifestyle is bad for my health
         Am                       F      G
It's the only thing that seems to help


Bridge
C
All of this drinking and smoking is hopeless but
Em
Feel like it's all that I need
Am
Something inside of me's broken I hold on to
F                     G
Anything that sets me free


Chorus
      C                      Em
I'm a lost cause, baby don't waste your time on me
       Am
I'm so damaged beyond repair
         F
Life has shattered my hopes and my dreams
      C                      Em
I'm a lost cause, baby don't waste your time on me
       Am
I'm so damaged beyond repair
         F                         G
Life has shattered my hopes and my dreams


Instrumental w/ "Ooooohs"
C Em Am F


Verse 2
            C                         Em
What if the night sky was missing the moon
              Am                               F
There were no shooting stars to use wishing on you
              C                          Em
And all of my sorrows I'd just wash them down
         Am                   F
It's the only peace I've ever found


Bridge
C
All of this drinking and smoking is hopeless but
Em
Feel like it's all that I need
Am
Something inside of me's broken I hold on to
F                     G
Anything that sets me free


Chorus
      C                      Em
I'm a lost cause, baby don't waste your time on me
       Am
I'm so damaged beyond repair
         F
Life has shattered my hopes and my dreams
      C                      Em
I'm a lost cause, baby don't waste your time on me
       Am
I'm so damaged beyond repair
         F                         G
Life has shattered my hopes and my dreams


Instrumental w/ "Ooooohs"
C Em Am F C
less
plus
Add to Songbook Print Version How to play lesson Submit videolesson
Click the best TAGS for this song:
None of them
Contributor: Anonymous Correct

If you can not find the chords or tabs you want, look at our partner E-chords. If you are a premium member, you have total access to our video lessons.

If you find a wrong Bad To Me from Jelly Roll (US, Nashville, TN), click the correct button above.

login/signup
my songbooks
my recent views
my submits