tools Ultimate Tabs

Start AutoScroll Font Size Down Font Size Up

Find us on Facebook

chords
tabs
bass
ukulele
keyboards
drums
flute
harmonica
guitar pro video
Ultimate-Tabs

Hellbound

Jerry Cantrell
Hellbound

Intro
F#|------------------------------------------------------------------------|
C#|------------------------------------------------------------------------|
G#|------------------------------------------------------------------------|
D#|--7-6------5-4------7-6------7-6-----5-4-------7-6-------5-(let ring)---|

Bit before verse/chorus bit
F#|------------------------------------------------------------------------|
C#|------------------------------------------------------------------------|
G#|--0-----------0------------0-------------0--------------0---------------|
D#|------------------------------------------------------------------------|

Chorus
F#|------------------------------------------------------------------------|
C#|------------------------------------------------------------------------|
G#|-0-0-5p3p0--5-5-5-3-0---3-3-3-5-3-0-------------------------------------|
D#|------------------------------------------------------------------------|

Variation
F#|------------------------------------------------------------------------|
C#|------------------------------------------------------------------------|
G#|-0-0-5p3p0--5-5-5-3-0---3-3-1-0-0---------------------------------------|
D#|------------------------------------------------------------------------|


Verse
F#|------------------------------------------------------------------------|
C#|------------------------------------------------------------------------|
G#|-0-0-0-0-0-0-0-0-0-0-0-0-----0-000-11-3-35-0----------------------------|
D#|------------------------------------------------------------------------|

Prechorus-("Black eat white.....")
F#|------------------------------------------------------------------------|
C#|------------------------------------------------------------------------|
G#|-0------------3---------------------------------------------------------|
D#|------------------------------------------------------------------------|


Prechorus Part 2 ( "The truth is to some degree we all steal!")
F#|------------------------------------------------------------------------|
C#|------------------------------------------------------------------------|
G#|----5----3--------------------------------------------------------------|
D#|------------3---1-------------------------------------------------------|

End  prechorus
F#|------------------------------------------------------------------------|
C#|------------------------------------------------------------------------|
G#|------------------------------------------------------------------------|
D#|--3333333333333333-(get louder)-----------------------------------------|

Outro (same as intro)
F#|-------------------------------------------------------------------------|
C#|-------------------------------------------------------------------------|
G#|-------------------------------------------------------------------------|
D#|--7-6------5-4------7-6------5-4------7-6------5-4-----7-6------5--------|(let ring)

Heres the order
Intro x 1
Preverse x 1
Chorus part 1 x 1
Chorus part 2 x 1
Chorus part 1 x 1
Chorus part 2 x 1
Verse x 4
Prechorus part 1 x 3
Prechorus part 2 x 2
End Prechorus x 1
Chorus x 4
Chorus part 1 x 1
Chorus part 2 x 1
Chorus part 1 x 1
Chorus part 2 x 1
Verse x 4
Prechorus part 2 x 2
End Prechorus x 1
Chorus x 4
Chorus part 1 x 1
Chorus part 2 x 1
Chorus part 1 x 1
Chorus part 2 x 1
Guitar solo
Prechorus part 1 x 3
Prechorus part 2 x 2
End Prechorus x 1
Rest
Verse x 2
Prechorus part 1 x 3
Prechorus part 2 x 2
End Prechorus x 1
Chorus x 8
Outro x 1
less
plus
Add to Songbook Print Version How to play lesson Submit videolesson
Click the best TAGS for this song:
None of them
Contributor: micdadoy Correct

If you can not find the chords or tabs you want, look at our partner E-chords. If you are a premium member, you have total access to our video lessons.

If you find a wrong Bad To Me from Jerry Cantrell, click the correct button above.

login/signup
my songbooks
my recent views
my submits