S JerryC

Rock On tab

JerryC

tools Ultimate Tabs

Start AutoScroll Font Size Down Font Size Up

Find us on Facebook

chords
tabs
bass
ukulele
keyboards
drums
flute
harmonica
guitar pro video
Ultimate-Tabs

Rock On

Track 1 
          PM PM PM PM PM PM              PM         PM          
     Q    E  E  E  E  E  E       E    E  E    Q     E  E   E    
E||-------------------------|---------------------------------| 
B||-------------------------|---------------------------------| 
G||-------------------------|--<>3--<>4-----------------------| 
D||-------------------------|--------------------------5s--7--| 
A||--2----2--2--2--2--2--2--|------------2----------2---------| 
E||--0----0--0--0--0--0--0--|------------0--<>3~----0---------| 

       PM PM       PM                                    
  Q    E  E  E  E  E  E     Q    E   E  E   E    Q       
-------------------------|-----------------------------| 
-------------------------|-----------------------------| 
-------------3--0--------|-----------------------------| 
--5----5--5--------5--2--|--L-----------4s--5----------| 
--3----3--3--------3--0--|--L----2s--3---------<>5~----| 
-------------------------|-----------------------------| 

       PM PM PM PM PM PM              PM         PM          
  Q    E  E  E  E  E  E       E    E  E    Q     E  E   E    
-------------------------|---------------------------------| 
-------------------------|---------------------------------| 
-------------------------|--<>3--<>4-----------------------| 
-------------------------|--------------------------5s--7--| 
--2----2--2--2--2--2--2--|------------2----------2---------| 
--0----0--0--0--0--0--0--|------------0--<>3~----0---------| 

       PM PM       PM                                  
  Q    E  E  E  E  E  E     Q    E   E  E    Q.        
-------------------------|---------------------------| 
-------------------------|---------------------------| 
-------------3--0--------|---------------------------| 
--5----5--5--------5--2--|--L-----------4------------| 
--3----3--3--------3--0--|--L----2s--3-----<>5~------| 
-------------------------|---------------------------| 

         PM PM PM PM PM PM              PM         PM          
    Q    E  E  E  E  E  E       E    E  E    Q     E  E   E    
|--------------------------|---------------------------------| 
|--------------------------|---------------------------------| 
|*-------------------------|--<>3--<>4-----------------------| 
|*-------------------------|--------------------------5s--7--| 
|---2----2--2--2--2--2--2--|------------2----------2---------| 
|---0----0--0--0--0--0--0--|------------0--<>3~----0---------| 

       PM PM       PM                                      
  Q    E  E  E  E  E  E     Q    E   E  E   E    Q      3x 
-------------------------|------------------------------|| 
-------------------------|------------------------------|| 
-------------3--0--------|-----------------------------*|| 
--5----5--5--------5--2--|--L-----------4s--5----------*|| 
--3----3--3--------3--0--|--L----2s--3---------<>5~-----|| 
-------------------------|------------------------------|| 

       PM PM PM PM PM PM              PM                     
  Q    E  E  E  E  E  E       E    E  E    E  E    Q.        
-------------------------|---------------------------------| 
-------------------------|---------------------------------| 
-------------------------|--<>3--<>4-----------------------| 
-------------------------|---------------<>5---------------| 
--2----2--2--2--2--2--2--|------------2----------<>5~------| 
--0----0--0--0--0--0--0--|------------0--------------------| 

       PM PM PM PM PM                   PM PM PM PM PM              
  Q    S  S  S  S  S  S E  E  E     E.  S  S  S  S  S    H          
---------------------------------|--------------------------------| 
---------------------------------|---------------------<>4--------| 
---------------------------------|--------------------------------| 
--5----5--5--5--5--5----5-----2--|--L---2--2--2--2--2-------------| 
--3----3--3--3--3--3----3-----0--|--L---0--0--0--0--0-------------| 
---------------------------------|--------------------------------| 

  Q     Q    H           E  E   E  E   Q     Q        Q    E  H         E    
--------9----7--------|---------------------------|------------------------| 
--L----10----8--------|--8--8--10--8--10----12----|--12--------------------| 
----------------------|---------------------------|--------7--9~--------L--| 
----------------------|---------------------------|------------------------| 
----------------------|---------------------------|------------------------| 
----------------------|---------------------------|------------------------| 

                           PM PM    PM PM PM        PM PM                  
  W                   Q    E  E  E  E  E  E      E  E  E   E   Q.     E    
-------------------|-------------------------|---------------------------| 
-------------------|-------------------------|---------------------------| 
--L----------------|--L----------9-----------|--11--------11b--L------9--| 
-------------------|-------9--9-----9--9--9--|------9--9-----------------| 
-------------------|-------------------------|---------------------------| 
-------------------|-------------------------|---------------------------| 

  Q     E   H         E     E  E  E  E  E  Q.         Q     Q    H          
-------------------------|-------------------------|--------9----7--------| 
-------------------------|-------------------------|-------10----8--------| 
-------------------------|-------------------------|----------------------| 
--9----10\--5~--------L--|--0--0--5--0--7--5~------|--L-------------------| 
-------------------------|-------------------------|----------------------| 
-------------------------|-------------------------|----------------------| 

  E  E   E  E   Q     Q        Q     E   Q.      E  E    
---------------------------|--------10-----------------| 
--8--8--10--8--10----12----|--12--------10------12--8--| 
---------------------------|---------------------------| 
---------------------------|---------------------------| 
---------------------------|---------------------------| 
---------------------------|---------------------------| 

  Q    E  E  E  E  E  E     Q.     E  E  E  E   E      Q.     E  Q     E  E    
-------------------------|--------------------------|------------------------| 
--L----7--8--7--8--7--5--|--L-----------------------|------------------------| 
-------------------------|------------9--------11b--|--L------9--------------| 
-------------------------|---------9-----9----------|------------9----10--9--| 
-------------------------|--------------------------|------------------------| 
-------------------------|--------------------------|------------------------| 

               PM PM                                                   
  Q    E  Q    E  E    E     W                   Q     Q    H          
--------------------------|-------------------|--------9----7--------| 
--------------------------|-------------------|-------10----8--------| 
--------------------------|-------------------|----------------------| 
--7----9--5----5--5--<>5--|--L----------------|--L-------------------| 
--------------------------|-------------------|----------------------| 
--------------------------|-------------------|----------------------| 

  E  E   E  E   Q     Q        Q    E  H        E    
---------------------------|-----------------------| 
--8--8--10--8--10----12----|--12-------------------| 
---------------------------|--------7--9--------L--| 
---------------------------|-----------------------| 
---------------------------|-----------------------| 
---------------------------|-----------------------| 

       NH     NH     NH     NH                                                  
  E    Q      Q      Q      E     H.           E  E     Q    E  E  E  E  Q      
-------------------------------|---------------------|------------------------| 
-----<>7----<>5----------------|---------------------|------------------------| 
-------------------<>5----<>5--|--L------------9-----|--9----7----------------| 
-------------------------------|---------------------|----------9--8--7--5----| 
-------------------------------|---------------------|------------------------| 
-------------------------------|---------------------|------------------------| 

  E  Q      S E    Q      S E     E  E  E  E  H           Q     Q    H          
-------------------------------|-----------------------|--------9----7--------| 
-------------------------------|-----------------------|-------10----8--------| 
-------------------------------|-----------------------|----------------------| 
--L--7br----5----<>7br----5----|--------------5--------|--L-------------------| 
--------------7-------------7--|--L--5--6--7-----------|----------------------| 
-------------------------------|-----------------------|----------------------| 

  E  E   E  E   Q     Q        Q     E   Q.      E  E    
---------------------------|--------10-----------------| 
--8--8--10--8--10----12----|--12--------10------12--8--| 
---------------------------|---------------------------| 
---------------------------|---------------------------| 
---------------------------|---------------------------| 
---------------------------|---------------------------| 

                                      |-----3-----|      
  Q    E  E  E  E  E  E     Q.     E  Q     Q     Q      
-------------------------|-----------------------------| 
--L----7--8--7--8--7--5--|--L--------------------------| 
-------------------------|------------9----11----12----| 
-------------------------|---------9-------------------| 
-------------------------|-----------------------------| 
-------------------------|-----------------------------| 

   H.               E   E      Q     E   Q     E   E   E    
---------------------------|------------19----20--19------| 
--11brb------------11------|--17----20----------------20--| 
-----------------------12--|------------------------------| 
---------------------------|------------------------------| 
---------------------------|------------------------------| 
---------------------------|------------------------------| 

   Q     E   H        E     H         E   E   E   E    
--22----19---------------|---------------------------| 
------------20--------L--|--L------------------------| 
-------------------------|---------------14--16--17--| 
-------------------------|-----------14--------------| 
-------------------------|---------------------------| 
-------------------------|---------------------------| 

  Q     Q     Q     E   E      Q    E  Q.     E  E    
---------------------------|------------------------| 
---------------------------|---------------------7--| 
--L----16----------14--16--|--14----7--7------L--7--| 
-------------17------------|------------------------| 
---------------------------|------------------------| 
---------------------------|------------------------| 

     PM     PM                                        
  E  E   E  E  E   E  E  E     Q    E  E  Q    Q      
----------------------------|----------5--7----8----| 
--L-----10-----8--10--8-----|-------5---------------| 
--L--7------7------------9--|--L--------------------| 
----------------------------|-----------------------| 
----------------------------|-----------------------| 
----------------------------|-----------------------| 

  E  E   Q     Q       E   E    
--L--7--------12br-----L--10--| 
--------10--------------------| 
------------------------------| 
------------------------------| 
------------------------------| 
------------------------------| 

            T                                T  T  T  T  T  T  T   
   H         S                                S  S  S  S  S  S  S   
---L--------14-------------------------------12-10-14-12-10-14-12-| 
------------------------------------------------------------------| 
------------------------------------------------------------------| 
------------------------------------------------------------------| 
------------------------------------------------------------------| 
------------------------------------------------------------------| 

   T                                                               
   E    S  S  S  S  S  S  H             Q     Q     E   Q     E    
--14s--19-17-14-19-17-14-19b~--------|--L------------------------| 
-------------------------------------|---------------------------| 
-------------------------------------|-------12b-------14b-------| 
-------------------------------------|---------------------------| 
-------------------------------------|---------------------------| 
-------------------------------------|---------------------------| 

   Q     E   H         E     W                  
--------------------------|-------------------| 
--------------------------|-------------------| 
--15b-------17b--------L--|--L----------------| 
--------------------------|-------------------| 
--------------------------|-------------------| 
--------------------------|-------------------| 

  H                                Q.      E      H        Q.      E     
------------------------------------------------|-----------------------| 
--15b~------------------------------L------15b--|--L--------L------18b--| 
------------------------------------------------|-----------------------| 
------------------------------------------------|-----------------------| 
------------------------------------------------|-----------------------| 
------------------------------------------------|-----------------------| 

            T             T     
   Q.       E    Q.       E     
------------------------------| 
--15b------18b--15b------18b--| 
------------------------------| 
------------------------------| 
------------------------------| 
------------------------------| 

   Gradually release the 15 bend and keep tapping 18                             
                                                     T         T         T       
   |---------------------------3--------------------------|    |----3----|    |- 
   E                                                 E    E    E    E    E    E  
-------------------------------------------------------------------------------- 
--15b-----------------------------------------------18b--15b--18b--15b--18b--15b 
-------------------------------------------------------------------------------- 
-------------------------------------------------------------------------------- 
-------------------------------------------------------------------------------- 
-------------------------------------------------------------------------------- 

-----------|-----------|-----------|-----------|-----------|-----------| 
-----------|-----------|-----------|-----------|-----------|-----------| 
-----------|-----------|-----------|-----------|-----------|-----------| 
-----------|-----------|-----------|-----------|-----------|-----------| 
-----------|-----------|-----------|-----------|-----------|-----------| 
-----------|-----------|-----------|-----------|-----------|-----------| 

-----------|-----------|-----------|-----------|-----------|-----------| 
-----------|-----------|-----------|-----------|-----------|-----------| 
-----------|-----------|-----------|-----------|-----------|-----------| 
-----------|-----------|-----------|-----------|-----------|-----------| 
-----------|-----------|-----------|-----------|-----------|-----------| 
-----------|-----------|-----------|-----------|-----------|-----------| 

  Q     Q    H           E  E   E  E   Q     Q        Q    E  H        E    
--------9----7--------|---------------------------|-----------------------| 
-------10----8--------|--8--8--10--8--10----12----|--12-------------------| 
----------------------|---------------------------|--------7--9--------L--| 
----------------------|---------------------------|-----------------------| 
----------------------|---------------------------|-----------------------| 
----------------------|---------------------------|-----------------------| 

       NH     NH     NH     NH                                                  
  E    Q      Q      Q      E     H.           E  E     Q    E  E  E  E  Q      
--------------------------<>5--|--L------------------|------------------------| 
-----<>7----<>5----------------|---------------------|------------------------| 
-------------------<>5---------|---------------9-----|--9----7----------------| 
-------------------------------|---------------------|----------9--8--7--5----| 
-------------------------------|---------------------|------------------------| 
-------------------------------|---------------------|------------------------| 

  E  Q      S E    Q      S E     E  E  E  E  H           Q     Q    H          
-------------------------------|-----------------------|--------9----7--------| 
-------------------------------|-----------------------|-------10----8--------| 
-------------------------------|-----------------------|----------------------| 
--L--7br----5----<>7br----5----|--------------5--------|--L-------------------| 
--------------7-------------7--|--L--5--6--7-----------|----------------------| 
-------------------------------|-----------------------|----------------------| 

  E  E   E  E   Q     Q        Q     E   Q.      E  E    
---------------------------|--------10-----------------| 
--8--8--10--8--10----12----|--12--------10------12--8--| 
---------------------------|---------------------------| 
---------------------------|---------------------------| 
---------------------------|---------------------------| 
---------------------------|---------------------------| 

        \1/                      
        3       3       3        
  Q     Q.      Q.      Q.       
-------------------------------| 
--L----13------10------15------| 
-------------------------------| 
-------------------------------| 
-------------------------------| 
-------------------------------| 

   Read tip #2 on my Whammy Bar Tips post on JC forum                       
                                                      W            W        
   Q                                                  E   Q.       E   E    
--------------------------------------------------------------------------| 
--12h------------------------------------------------15--12h------15--12--| 
--------------------------------------------------------------------------| 
--------------------------------------------------------------------------| 
--------------------------------------------------------------------------| 
--------------------------------------------------------------------------| 

        W           W          W         W         W      
  Q     E   Q.      E   E      Q     E   Q     E   Q      
---------------------------|----------------------------| 
--L----15--12------15--12--|--15----12--15----12--15----| 
---------------------------|----------------------------| 
---------------------------|----------------------------| 
---------------------------|----------------------------| 
---------------------------|----------------------------| 

   E   H.            E     E  Q     Q     E   Q       E   E   Q     H            
------------------------|--------------------------|---------------------------| 
--12--15b------------L--|--L-----------------------|---------------17br--------| 
------------------------|----------------16--17----|--L--16--14----------------| 
------------------------|----------14--------------|---------------------------| 
------------------------|--------------------------|---------------------------| 
------------------------|--------------------------|---------------------------| 

                                          |-----3-----|      
   H         E   E   Q          H         Q     Q     Q      
----------------19--19br~----|--L--------19----18----17----| 
--15~------------------------|-----------------------------| 
-----------------------------|-----------------------------| 
-----------------------------|-----------------------------| 
-----------------------------|-----------------------------| 
-----------------------------|-----------------------------| 

   Q.      E   E   E   Q        E   E   E   Q     Q     E       
--15------15--17--15--------|------15------17----19----22brb--| 
----------------------17----|--17------17---------------------| 
----------------------------|---------------------------------| 
----------------------------|---------------------------------| 
----------------------------|---------------------------------| 
----------------------------|---------------------------------| 

  W                   W                   E  E   E   E   E   Q.       
--L----------------|--L----------------|--L-------------------------| 
-------------------|-------------------|----------------------------| 
-------------------|-------------------|------------14--16--17------| 
-------------------|-------------------|--------14------------------| 
-------------------|-------------------|----------------------------| 
-------------------|-------------------|----------------------------| 

                                              make sure you upstroke here!      
   Q     Q     Q     E   E      E   H         Q                            E    
----------------------------|-------------------------------------------------| 
----------------------------|-------------------------------------------------| 
--16----14------------------|--14------------11-------------------------------| 
--------------17----16--17--|------12--------12---------------------------12--| 
----------------------------|-------------------------------------------------| 
----------------------------|-------------------------------------------------| 

                                         |-----3-----|              
   E   E   E   E   E   Q.        E   E   Q     Q     Q     E   E    
------------------------------|-----------------------------------| 
------------------------------|---------17----19----20------------| 
--14------12--14--12--16------|--L--16--------------------16--17--| 
------12----------------------|-----------------------------------| 
------------------------------|-----------------------------------| 
------------------------------|-----------------------------------| 

           |-----3-----|                                       
   E   E   Q     Q     Q     Q        E   H         Q     E    
----------------------19----20----|--19--17--------19----18--| 
----------------------------------|--------------------------| 
---L--16--17----19----------------|--------------------------| 
----------------------------------|--------------------------| 
----------------------------------|--------------------------| 
----------------------------------|--------------------------| 

   E   E   H         Q         E   Q.       H            H.            Q       
---L--17--15--------12-----|---L--12-------12---------|--L------------22b----| 
--------------------15b----|---L--15b------15b--------|--L-------------------| 
---------------------------|--------------------------|----------------------| 
---------------------------|--------------------------|----------------------| 
---------------------------|--------------------------|----------------------| 
---------------------------|--------------------------|----------------------| 

   E   Q.       H             H        H                      
---L--22b------22b~--------|--L-----------------|-----------| 
---------------------------|--------------------|-----------| 
---------------------------|--------------------|-----------| 
---------------------------|--------------------|-----------| 
---------------------------|--------------------|-----------| 
---------------------------|--------------------|-----------| 

                                           W                   
-------------------|-------------------|---------------------| 
-------------------|-------------------|---------------------| 
-------------------|-------------------|--/9~----------------| 
-------------------|-------------------|---------------------| 
-------------------|-------------------|---------------------| 
-------------------|-------------------|---------------------| 

                        |---3---|                              
   E   E  E   Q     E   E   E   E      E  E  E  H         E    
-------------------10--------------|-------------------------| 
-------------12--------12--11--10--|-------------------------| 
--11--12---------------------------|--12--9-----7~--------L--| 
-----------------------------------|-------------------------| 
-----------------------------------|-------------------------| 
-----------------------------------|-------------------------| 

  E  E  E  E  E  E  Q       E  H.           E     E  S S E  S S E  E  E  E    
-------------------------|---------------------|----------------------------| 
--------------------7----|--9------------------|----------------------------| 
-----6--7--6-------------|-----9------------7--|--L--9-7-6--7-6-------------| 
--------------9--7-------|---------------------|----------------7--9--6--7--| 
-------------------------|---------------------|----------------------------| 
-------------------------|---------------------|----------------------------| 

  E    H.            E     H         H           H         E   E  E   E    
------------------------|---------------------|--------------------------| 
------------------------|---------------------|----------------------12--| 
------------------------|-----------/9--------|--L--------11--12---------| 
--6---------------------|---------------------|--------------------------| 
-----<>7~------------L--|--L------------------|--------------------------| 
------------------------|---------------------|--------------------------| 

  E   E   E   E   E   E  E   E       H         S  S  S  S  S  S  S  S   
-----10----------10--12-----15~--|---L--------10-12-15-12-15-12-10-12-| 
--L------10--12------------------|------------------------------------| 
---------------------------------|------------------------------------| 
---------------------------------|------------------------------------| 
---------------------------------|------------------------------------| 
---------------------------------|------------------------------------ 

   S  S  S  S  H           S  S  S  S     Q    E  Q    S S E  S S   
--15-12-15-12-10b~--------------------|---------------------------| 
--------------------------10-12-15-12-|--12----L------------------| 
--------------------------------------|-----------7----9-7-6--7-6-| 
--------------------------------------|---------------------------| 
--------------------------------------|---------------------------| 
--------------------------------------|---------------------------| 

                   \1/                                              
  E  E  E  E  E    Q.        W                   W                  
--------------------------|-------------------|-------------------| 
--------------------------|-------------------|-------------------| 
-----------------<>7------|--L----------------|-------------------| 
--7--9--6--7--6-----------|-------------------|-------------------| 
--------------------------|-------------------|-------------------| 
--------------------------|-------------------|-------------------| 

  W                   W                   W                   W                  
-------------------|-------------------|-------------------|-------------------| 
-------------------|-------------------|-------------------|-------------------| 
-------------------|-------------------|-------------------|-------------------| 
-------------------|-------------------|-------------------|-------------------| 
-------------------|-------------------|-------------------|-------------------| 
-------------------|-------------------|-------------------|-------------------| 

  W                   W                   H        E  Q.       
-------------------|-------------------|--------------0------| 
-------------------|-------------------|---------------------| 
-------------------|-------------------|---------------------| 
-------------------|-------------------|---------------------| 
-------------------|-------------------|---------------------| 
-------------------|-------------------|---------------------| 

   H        E  E  E  E     E  E  E  E   E  E  E  E     Q     E  E  Q    Q      
--19--------------------|---------------------------|------------------------| 
---------------------9--|--L------------------------|------------------------| 
------------7--9--------|-----9--7--9--10--9--7--9--|--7---------------------| 
------------------------|---------------------------|-------10--9--7---------| 
------------------------|---------------------------|-------------------8----| 
------------------------|---------------------------|------------------------| 

  H        H           W                    H.            Q      
--------------------|-------------------|--19~-----------------| 
--------------------|-------------------|----------------------| 
--------------------|-------------------|----------------------| 
--------------------|-------------------|----------------------| 
--7-----------------|-------------------|----------------------| 
--------------------|-------------------|----------------------| 

  Q     E   E   E   E   E   E      Q     E   Q     Q       E    
-------------------------------|------------------------------| 
-------------------------------|------------------17br----17--| 
-------------------14--16--17--|--16----16--16----------------| 
-------14--16--17--------------|------------------------------| 
-------------------------------|------------------------------| 
-------------------------------|------------------------------| 

   Q     E   Q     Q.          H          H             W                   
------------------17b------|--17b--------17b--------|---L~----------------| 
---------------------------|------------------------|---------------------| 
--16----16--16-------------|------------------------|---------------------| 
---------------------------|------------------------|---------------------| 
---------------------------|------------------------|---------------------| 
---------------------------|------------------------|---------------------| 

  Q     Q    H           E  E   E  E   Q     Q        Q    E  H        E    
--------9----7--------|---------------------------|-----------------------| 
-------10----8--------|--8--8--10--8--10----12----|--12-------------------| 
----------------------|---------------------------|--------7--9--------L--| 
----------------------|---------------------------|-----------------------| 
----------------------|---------------------------|-----------------------| 
----------------------|---------------------------|-----------------------| 

       NH     NH     NH     NH                           
  E    Q      Q      Q      E     H        E  E  E  E    
--------------------------<>5--|--L--------------------| 
-----<>7----<>5----------------|-----------------------| 
-------------------<>5---------|--------------9-----9--| 
-------------------------------|-----------------------| 
-------------------------------|-----------------------| 
-------------------------------|-----------------------| 

  E  E  E  E  E  E  E  E       E  E  E  E    E  E  E  E    
--------------------------|------------------------------| 
--------------------------|------------------------------| 
--L-----------9-----------|--<>9-----------<>9-----------| 
-----7--8--9-----7--8--9--|-------7--8--9-------7--8--9--| 
--------------------------|------------------------------| 
--------------------------|------------------------------| 

  E  Q     Q    Q.        Q     Q    H            E.    Q       H           S   
-----------------------|--------9----7--------|--17b---17pb----17pbr--------L-| 
----------10----8------|-------10----8--------|-------------------------------| 
--9--7-----------------|----------------------|-------------------------------| 
-----------------------|----------------------|-------------------------------| 
-----------------------|----------------------|-------------------------------| 
-----------------------|----------------------|-------------------------------| 

  W                   W                    H          E   Q.         
-------------------|-------------------|---------------------------| 
-------------------|-------------------|---------------------------| 
-------------------|-------------------|---------------------------| 
-------------------|-------------------|-----------------15b~------| 
-------------------|-------------------|---------------------------| 
-------------------|-------------------|--14b~---------------------| 

  Q.     Q     Q     E      Q.      E   E   E   Q         W                   
------------------------|----------------------12-----|--12-----------------| 
------------------------|----------15--15--15--15b----|--15b----------------| 
--------------14----12--|--12-------------------------|---------------------| 
--L---------------------|-----------------------------|---------------------| 
------------------------|-----------------------------|---------------------| 
------------------------|-----------------------------|---------------------| 

  E  Q.      E   E   E   E     Q     E   Q     Q.         
----------------------------|---------------------------| 
--L-------------------------|-----------------17br------| 
----------------14--16--17--|--L----16--14--------------| 
------------14--------------|---------------------------| 
----------------------------|---------------------------| 
----------------------------|---------------------------| 

                                          |-----3-----|      
   H         Q     E   E        H         Q     Q     Q      
------------------19--19br~--|--L--------19----18----17----| 
--15~------------------------|-----------------------------| 
-----------------------------|-----------------------------| 
-----------------------------|-----------------------------| 
-----------------------------|-----------------------------| 
-----------------------------|-----------------------------| 

   H         E   E   E   E     E   E   E   E   Q     Q      
--15--------15--17--15------|---------15------17----19----| 
------------------------17--|--L--17------17--------------| 
----------------------------|-----------------------------| 
----------------------------|-----------------------------| 
----------------------------|-----------------------------| 
----------------------------|-----------------------------| 

        \1/       \1/          \1/                                             
  Q     H         Q        E   Q.      H            H         E   E   E   E    
-----------------------|-------------------------|---------------------------| 
-------15--------12----|---L--10------15~--------|--L------------------------| 
-----------------------|-------------------------|---------------14--16--17--| 
-----------------------|-------------------------|-----------14--------------| 
-----------------------|-------------------------|---------------------------| 
-----------------------|-------------------------|---------------------------| 

                                                  make sure you upstroke here!   
  Q     Q     Q     Q        E   E   E   H        E                              
-------------------------|-----------------------------------------------------| 
-------------------------|------------------------7----------------------------| 
--L----16----14----------|----------14------------7----------------------------| 
-------------------17----|--16--17------12-------------------------------------| 
-------------------------|-----------------------------------------------------| 
-------------------------|-----------------------------------------------------| 

     PM     PM                                                  
  E  E   E  E  E   E  E  E     H         E    E     E     E     
----------------------------|-----------12---------------12---| 
--L-----10-----8--10--8-----|-----------15b--15pb--15pb--15b--| 
--L--7------7------------9--|--L------------------------------| 
----------------------------|---------------------------------| 
----------------------------|---------------------------------| 
----------------------------|---------------------------------| 

   E     E     E    E     E     E   E   E      H         E   E   E   E    
--------------12---------------17--19--17--|--19--------19--17--15--17--| 
--15pb--15pb--15b--15pb--15pb--------------|----------------------------| 
-------------------------------------------|----------------------------| 
-------------------------------------------|----------------------------| 
-------------------------------------------|----------------------------| 
-------------------------------------------|----------------------------| 

  E   H.             E      Q.       Q.       Q         W                  
--L--20b~------------L--|--22b------22b------22b~----|--L----------------| 
------------------------|----------------------------|-------------------| 
------------------------|----------------------------|-------------------| 
------------------------|----------------------------|-------------------| 
------------------------|----------------------------|-------------------| 
------------------------|----------------------------|-------------------| 

   Q.       Q.       Q         W                  
--12-------12-------12-----|---L----------------| 
--15b------15b------15b----|---L----------------| 
---------------------------|--------------------| 
---------------------------|--------------------| 
---------------------------|--------------------| 
---------------------------|--------------------| 

    Go ahead. Make love to your whammy bar =D                 
    \1/                                       \1/      \1/    
    Q.                                        Q.       Q      
--<>4---------------------------------------<>4------<>4----| 
------------------------------------------------------------| 
------------------------------------------------------------| 
------------------------------------------------------------| 
------------------------------------------------------------| 
------------------------------------------------------------| 

  W                   W                   
--L----------------|--L----------------|| 
-------------------|-------------------|| 
-------------------|-------------------|| 
-------------------|-------------------|| 
-------------------|-------------------|| 
-------------------|-------------------|| 

Duration Legend 
--------------- 
W - whole 
H - half 
Q - quarter 
E - 8th 
S - 16th 
T - 32nd 
X - 64th 
. - note dotted 
|-n-|  - n-tuplets 

Tablature Legend 
---------------- 
L - tied note 
x - dead note 
g - grace note 
(n) - ghost note 
> - accentuded note 
NH - natural harmonic 
AH - artificial harmonic 
TH - tapped harmonic 
SH - semi harmonic 
PH - pitch harmonic 
h - hammer on 
p - pull off 
b - bend 
br - bendRelease 
pb - preBend 
pbr - preBendRelease 
brb - bendReleaseBend 
\n/ - tremolo bar dip 
\n - tremolo bar dive 
-/n - tremolo bar Release up 
/n\ - tremolo bar inverted dip 
/n - tremolo bar return 
-\n - tremolo bar Release down 
S - shift slide 
s - legato slide 
/ -  slide into from below or out of upwards 
\ -  slide into from above or out of downwards 
~ - vibrato 
W - wide vibrato 
tr - trill 
TP - tremolo picking 
T - tapping 
S - slap 
P - pop 
< - fade in 
^ - brush up 
v - brush down  
less
plus
Add to Songbook Print Version How to play lesson Submit videolesson
Click the best TAGS for this song:
None of them
Contributor: blonRotz Correct

If you can not find the chords or tabs you want, look at our partner E-chords. If you are a premium member, you have total access to our video lessons.

If you find a wrong Bad To Me from JerryC, click the correct button above.

login/signup
my songbooks
my recent views
my submits