Joey Ramone

What a Wonderful World tab

Joey Ramone

Album:Don't Worry About Me - DualDisc

Year:2004

tools Ultimate Tabs

Start AutoScroll Font Size Down Font Size Up

Find us on Facebook

chords
tabs
bass
ukulele
keyboards
drums
flute
harmonica
guitar pro
video
Ultimate-Tabs

What a Wonderful World

  
verse 1  
-======-  
  
e|-------------------------------------------------------------------------------|  
B|-------------------------------------------------------------------------------|  
G|-------------------------------------------------------------------------------|  
D|------------------3-3----------------3-3----------------3-3---------------3-3--|  
A|----------3-3----------------3-3----------------3-3---------------3-3----------|  
E|-1----1-1-----1-1--------1-1-----1-1--------1-1-----1-1-------1-1-----1-1------|  
  
 
F Am Bb I see trees of green, Am Red roses too. Gm F I see them bloom Db Dm For me and you Db Bb And i say to myself, C F C "what a wonderful world." F Am Bb I see skies of blue Am And clouds of white Gm F Bright sunny days, Db Dm Dark sacred nights Db Bb And i think to myself, C F Em F Em F Em F "what a wonderful world." C The colors of the rainbow F So pretty in the skies C Are also on the faces F Of people walking by . Dm Am I see friends shaking hands, Dm Am Saying, "how do you do? " Dm Am They´re really saying Bb C "i love you." F I hear babies cry Am Bb Am I watch them grow. Gm F They´ll learn much more Db Dm Than i´ll ever know, Db Bb And i think to myself, C F Eb D (3X) "what a wonderful world." Bb C And i think to myself, C# Eb F "what a wonderful world."
Riff:  
  
  D-----6-------------------  
  A-6/8---8-6-4-------------  
  E-------------------------  
  
Versão 2
intro  
  
 (0:00 até 0:12)  
E----------------------  
B----------------------  
G----------------------  
D----3-3---------------  
A----------3-3---------  
E-1-1---1-1------------  
  
Verso (palm mute)  
  F   A  A#   A   G   F  C#   D   
E--------------------------------  
B--------------------------------  
G-----------------------------7--  
D-3---7---8---7---5---3---3---7--  
A-3---7---8---7---5---3---4---5--  
E-1---5---6---5---3---1----------  
  
Refrão   
  C#            Bb   C   F    C  
E-------------------------------------  
B-------------------------------------  
G-6--------------3---5---10---5-------  
D-6---3-6-3------3---5---10---5-------  
A-4--------6-4---1---3---8----3-------  
E-------------------------------------  
  
Verso (palm mute)  
  
Refrão  
  C#             Bb  C   F   E F    
E--------------------------------------  
B--------------------------------------  
G-6--------------3---5-------9-10-(4xs)  
D-6---3-6-3------3---5---3---9-10------  
A-4--------6-4---1---3---3---7/8-------  
E------------------------1-------------  
  
Ponte  
  C    F         D   C         Bb  C  
E--------------------0------------------------  
B--------------------1------------------------  
G-5---10--(2x)---7---0--(3x)---3---5----------  
D-5---10---------7---2---------3---5----------  
A-3---8----------5---3---------1---3----------  
E--------------------0------------------------  
  
Verso (palm mute)  
  
Refrão final  
  C#             Bb   C   F   D#   D   F    D#  D  Bb  C      C#              D#    
E-------------------------------------------------------------------------------------------------------  
B----------------(-------2x---------)-------------------------------------------------------------------  
G-6---------------3---5---10---8---7---10---8---7---3---5...---6---------------8------------------------  
D-6---3-6-3-------3---5---10---8---7---10---8---7---3---5...---6---3-6-3-------8-----8-8-8-8-8-7~~~-----  
A-4---------6-4---1---3---8----6---5---8----6---5---1---3...---4---------6-4---6---8----------------8/0-  
E-------------------------------------------------------------------------------------------------------  

less
plus
Add to Songbook Print Version How to play lesson Submit videolesson
Click the best TAGS for this song:
None of them
Contributor: wategwpr Correct

If you can not find the chords or tabs you want, look at our partner E-chords. If you are a premium member, you have total access to our video lessons.

If you find a wrong Bad To Me from Joey Ramone, click the correct button above.

login/signup
my songbooks
my recent views
my submits