John Mayer

Slow Dancing In A Burning Room bass

John Mayer

Album:Continuum

Year:2006

tools Ultimate Tabs

Start AutoScroll Font Size Down Font Size Up

Find us on Facebook

chords tabs
bass
ukulele keyboards
drums
flute
harmonica
guitar pro video
Ultimate-Tabs

Slow Dancing In A Burning Room

-------------------------------------------------------------------------------
                             SONG NAME - Band Name
-------------------------------------------------------------------------------
Tabbed by: Anno Steve - https://www.facebook.com/Daydreamer.band.be?fref=ts
E-mail: [email protected]


Standard Tuning:


Intro / Verse 
(these are the root notes, bass players with John use the optional verse with pentatonic riffs)

G|---------------------------------------------------------------------------|
D|---------------------------------------------------------------------------|
A|--4-x-4------------4-x-4------------4-x-4------------4-x-4-----------------|
E|--------5-x-0------------5-x-0------------5-x-0------------5-x-0-----------|


Optional Intro / Verse

G|---------------------------------------------------------------------------|
D|---------------------------------------------------------------------------|
A|--4-x--4--6----------------------------------------------------------------|
E|-------------5--7--0-------------------------------------------------------|



"We going down"

G|---------------------------------------------------------------------------|
D|---------------------------------------------------------------------------|
A|-----2--2--2--2--4-x-4-----------------------------------------------------|
E|-----------------------5--x--0---------------------------------------------|






| /  slide up
| \  slide down
| h  hammer-on
| p  pull-off
| ~  vibrato
| +  harmonic
| x  Mute note
===============================================================================
less
plus
Add to Songbook Print Version How to play lesson Submit videolesson
Click the best TAGS for this song:
None of them
Contributor: maespaka Correct

If you can not find the chords or tabs you want, look at our partner E-chords. If you are a premium member, you have total access to our video lessons.

If you find a wrong Bad To Me from John Mayer, click the correct button above.

login/signup
my songbooks
my recent views
my submits