tools Ultimate Tabs

Start AutoScroll Font Size Down Font Size Up

Find us on Facebook

chords
tabs
bass
ukulele keyboards
drums
flute
harmonica
guitar pro
video
Ultimate-Tabs

Wildfire

-------------------------------------------------------------------------------
                             Wildfire - John Mayer
-------------------------------------------------------------------------------
Tabbed by: Lukas G
E-mail: [email protected]

Tuning: standard

This is my first tab, any tips or fixes are appreciated!

Here is the link to the official video: http://www.youtube.com/watch?v=lK2kKg4ao2I

This song is a part of Johns new record "Paradise Valley" which will be out the 13th of August.
This song however will be released as a single before the record is out.

--Intro--

This riff is played in the intro, along with the chord D#.
It goes relatively fast, just try to listen to the timings in the song.
You can also find this riff in some other places of the song.

e|--11-11--------------------------| 
B|--11-11-13p11--13-13p11----------| 
G|--12-12------12--------12--------| 
D|-------------------------13-13---| 
A|---------------------------------| 
E|---------------------------------|

Here is another riff that's also played along with the intro and sometimes the verse.
e|-----------------------------------------------------------------------------|
B|-----------------------------------------------------------------------------|
G|---15-15b17---10b12-12br10-8---15-15b17-10b12-10b12-8------------------------|
D|-----------------------------------------------------------------------------|
A|-----------------------------------------------------------------------------|
E|-----------------------------------------------------------------------------|

Keep in mind that in some places of the verses no chords are played, there are just clapping.

D#
River's strong, you can swim inside it

You can string some lights up here beside it 
G#                                                                  D#
Tonight the moon's so bright you could drive with your headlights out
A#                                       G#                 D#
'Cause a little bit of summer's what the whole year's all about

(Clapping)
You look fine, fine, fine, put your feet up next to mine

We can watch that borderline get higher and higher

Say, say, say ain't it been some kinda day

You and me been catchin' on like a wildfire

(D# and Riff 1 and 2 together)

D#
Don't get up just to get another, you can drink from mine, we can't leave

each other
G#
We can dance with the dead, you can rest your head on my shoulder if you
                       D#
want to get older with me
A#                                    G#           D#
'Cause a little bit of summer makes a lot of history

(Clapping)
You look fine, fine, fine, put your feet up next to mine

We can watch that borderline get higher and higher

Say, say, say ain't it been some kinda day

You and me been catchin' on like a wildfire

G# - F# - G# - F#

G#
I got a rock from the river in my medecine bag
F#
Magpie feather in his medecine bag

G# - A#

(Clapping)
Say, say, say ain't it been some kinda day

You and me been catchin' on like a wildfire

(Outro D#)

************************************

| /   slide up
| \   slide down
| h   hammer-on
| p   pull-off
| ~   vibrato
| +   harmonic
| x   Mute note
| b   Bend
| pb  Pre-bend
| br  Bend release
| pbr Pre-bend release
| brb Bend release bend

************************************
less
plus
Add to Songbook Print Version How to play lesson Submit videolesson
Click the best TAGS for this song:
None of them
Contributor: MrBuLuke Correct

If you can not find the chords or tabs you want, look at our partner E-chords. If you are a premium member, you have total access to our video lessons.

If you find a wrong Bad To Me from John Mayer, click the correct button above.

login/signup
my songbooks
my recent views
my submits