Johnny Cash

All Over Again (ver. 2) tab

Johnny Cash

tools Ultimate Tabs

Start AutoScroll Font Size Down Font Size Up

Find us on Facebook

chords
tabs
bass
ukulele
keyboards
drums
flute
harmonica
guitar pro
video
Ultimate-Tabs

All Over Again (ver. 2)

 
 
I sent in a tab and the lyrics to the Cash song "All Over Again." The lyrics   
were right but the tab was all mixed up. So now I am submitting the tab   
(Hopefully it will turn up good)  
  
  
Intro  
------------------------------------------------  
------------------------------------------------  
------------------------------------------------  
----3-3-3-----3-3-3-------------------------  
-------------3-----------3---------------------  
------------------------------3-----------------  
  
Solo  
------------------------------------------------  
------------------------------------------------  
------------------------------------------------  
--3-3-3---3-3-3----3-3-3-----------------  
----------3---------3-------------------------  
------------------------------------------------  
  
------------------------------------------------  
------------------------------------------------  
------------------------------------------------  
-----3-3-3---3-3-3----3-3-3--------------  
--3---------3---------3-----------------------  
------------------------------------------------  
  
------------------------------------------------  
------------------------------------------------  
------------------------------------------------  
------------------------------------------------  
----2-2-2-----2-2-2-----2-2-2------------  
-2----------2-----------2---------------------  
  
------------------------------------------------  
------------------------------------------------  
------------------------------------------------  
------------------------------------------------  
-----2-2-2----2-2-2-----2-2-2------------  
--2----------2----------2---------------------  
  
------------------------------------------------  
------------------------------------------------  
------------------------------------------------  
----3-3-3-----3-3-3-------------------------  
-------------3-----------3---------------------  
------------------------------3----------------- 
 
 
 
less
plus
Add to Songbook Print Version How to play lesson Submit videolesson
Click the best TAGS for this song:
None of them
Contributor: gpatacou Correct

If you can not find the chords or tabs you want, look at our partner E-chords. If you are a premium member, you have total access to our video lessons.

If you find a wrong Bad To Me from Johnny Cash, click the correct button above.

login/signup
my songbooks
my recent views
my submits