Johnny Cash

All Over Again tab

Johnny Cash

Album:The Essential

Year:2003

tools Ultimate Tabs

Start AutoScroll Font Size Down Font Size Up

Find us on Facebook

chords
tabs
bass
ukulele
keyboards
drums
flute
harmonica
guitar pro
video
Ultimate-Tabs

All Over Again

Intro  
----------------------------------------------------------  
----------------------------------------------------------  
----------------------------------------------------------  
-------3-3-3-----3-3-3-------------------------------  
---3-----------3-----------3---------------------------  
--------------------------------3-----------------------  
  
Every time I look at you I fall in love, all over again  
Every time I think of you it all begins, all over again  
  
One little dream at night and I can dream all day  
It only takes a memory to thrill me  
One little kiss from you and I just fly away  
Pour me out your love until you fill me  
  
I wanna fall in love beginning from the start, all over again  
Show me how you stole away my heart, all over again  
  
Solo  
----------------------------------------------------------  
----------------------------------------------------------  
----------------------------------------------------------  
---3-3-3-----3-3-3-----3-3-3-----3-3-3-----------  
------------3----------3-----------3--------------------  
----------------------------------------------------------  
  
----------------------------------------------------------  
----------------------------------------------------------  
----------------------------------------------------------  
-----3-3-3-----3-3-3----3-3-3----------------------  
-3-----------3----------3----------3-------------------  
----------------------------------------------------------  
  
----------------------------------------------------------  
----------------------------------------------------------  
----------------------------------------------------------  
----------------------------------------------------------  
------2-2-2-----2-2-2------2-2-2----2-2-2--------  
---2----------2-----------2-----------2----------------  
  
----------------------------------------------------------  
----------------------------------------------------------  
----------------------------------------------------------  
-----2-2-2----2-2-2-----3-3-3---3-3-3------------  
--2----------2----------3---------3----------3--------  
---------------------------------------------------3-----  
  
One little dream at night and I can dream all day  
It only takes a memory to thrill me  
One little kiss from you and I just fly away  
Pour me out your love until you fill me  
  
I wanna fall in love beginning from the start, all over again  
Show me how you stole away my heart, all over again  
  
(Fade...............)  
  
All over again, All over again, All over again, All over again 
 
 
 
less
plus
Add to Songbook Print Version How to play lesson Submit videolesson
Click the best TAGS for this song:
None of them
Contributor: holyuhon Correct

If you can not find the chords or tabs you want, look at our partner E-chords. If you are a premium member, you have total access to our video lessons.

If you find a wrong Bad To Me from Johnny Cash, click the correct button above.

login/signup
my songbooks
my recent views
my submits