tools Ultimate Tabs

Start AutoScroll Font Size Down Font Size Up

Find us on Facebook

chords
tabs
bass
ukulele
keyboards
drums
flute
harmonica
guitar pro
video
Ultimate-Tabs

Hert

Artist:- Johnny Csh 
Song:- Hurt 
 
Intro: 
 
         Am       C          D 
e :------0--------0----------0----------- 
B :------1--------1----------3----------- 
G :------2--------0-------2--2----------- 
D :----2-------2-------0-----------------   x10 
A :-0-------3---------------------------- 
E :-------------------------------------- 
 
Chorus(2 options): 
 
      Am        F        C        G 
e :-0-0-0-0--1-1-1-1--0-0-0-0--3-3-3-3- 
B :-1-1-1-1--1-1-1-1--1-1-1-1--3-3-3-3- 
G :-2-2-2-2--2-2-2-2--0-0-0-0--0-0-0-0- 
D :-2-2-2-2--3-3-3-3--2-2-2-2--0-0-0-0-  x4  
A :-0-0-0-0--0-0-0-0--3-3-3-3--2-2-2-2- 
E :-x-x-x-x--x-x-x-x--x-x-x-x--3-3-3-3- 
 
Or, 
  
       G     A7sus4    Fadd9      C 
e :-3-3-3-3--3-3-3-3--3-3-3-3--3-3-3-3- 
B :-3-3-3-3--3-3-3-3--1-1-1-1--0-0-0-0- 
G :-0-0-0-0--2-2-2-2--2-2-2-2--1-1-1-1- 
D :-0-0-0-0--2-2-2-2--3-3-3-3--2-2-2-2-   x4   
A :-2-2-2-2--x-x-x-x--x-x-x-x--3-3-3-3- 
E :-3-3-3-3--x-x-x-x--x-x-x-x--x-x-x-x- 
 
Verse: 
 
         Am       C          D 
e :------0--------0----------0----------- 
B :------1--------1----------3----------- 
G :------2--------0-------2--2----------- 
D :----2-------2-------0-----------------   x10 
A :-0-------3---------------------------- 
E :-------------------------------------- 
 
Chorus: 
 
       Am       F        C        G 
e :-0-0-0-0--1-1-1-1--0-0-0-0--3-3-3-3- 
B :-1-1-1-1--1-1-1-1--1-1-1-1--3-3-3-3- 
G :-2-2-2-2--2-2-2-2--0-0-0-0--0-0-0-0- 
D :-2-2-2-2--3-3-3-3--2-2-2-2--0-0-0-0-  x4  
A :-0-0-0-0--0-0-0-0--3-3-3-3--2-2-2-2- 
E :-x-x-x-x--x-x-x-x--x-x-x-x--3-3-3-3- 
 
Or, 
  
       G     A7sus4    Fadd9      C 
e :-3-3-3-3--3-3-3-3--3-3-3-3--3-3-3-3- 
B :-3-3-3-3--3-3-3-3--1-1-1-1--0-0-0-0- 
G :-0-0-0-0--2-2-2-2--2-2-2-2--1-1-1-1- 
D :-0-0-0-0--2-2-2-2--3-3-3-3--2-2-2-2-   x4   
A :-2-2-2-2--x-x-x-x--x-x-x-x--3-3-3-3- 
E :-3-3-3-3--x-x-x-x--x-x-x-x--x-x-x-x- 
 
 
That's most of it, there is an end bit which I don't know. 
 
 
less
plus
Add to Songbook Print Version How to play lesson Submit videolesson
Click the best TAGS for this song:
None of them
Contributor: Frikvick Correct

If you can not find the chords or tabs you want, look at our partner E-chords. If you are a premium member, you have total access to our video lessons.

If you find a wrong Bad To Me from Johnny Cash, click the correct button above.

login/signup
my songbooks
my recent views
my submits