Johnny Cash

Ring Of Fire bass

Johnny Cash

Album:The Essential

Year:2003

tools Ultimate Tabs

Start AutoScroll Font Size Down Font Size Up

Find us on Facebook

chords
tabs
bass
ukulele keyboards
drums
flute
harmonica
guitar pro
video
Ultimate-Tabs

Ring Of Fire

Johnny Cash 
Ring Of Fire 

Horns Part: 

G----------------------------- 
D-5-----5---5---5-5---5---5--- 
A---5-3---5---5-----5---5---5- 
E----------------------------- 

Repeat Once 

Verse: 

   "Love..." 
G--------------------------------------------- 
D-5---5---5-----5---5---5---5---5-5---5---5--- 
A---5---3---5-3---5---5---5---5-----5---5---5- 
E--------------------------------------------- 
   "Bound..." 
G-------------------------------------- 
D-5---5---5-----5---5---5-5---5---5542- 
A---5---3---5-3---5---5-----5---5------ 
E-------------------------------------- 

Chorus: 

   "I fell into..." 
G-------------------------------------------------------------- 
D---------------------------------5---5---5---5---5---5---5-24- 
A-5---5--23-3---235---5--23-3---5---5---5---3---5---5---5--5--- 
E---5---5-----3-----5---5-----3-------------------------------- 

Horns Part but it end with extro: 

G----------------------------- 
D-5-----5---5---5-5---5---5--- 
A---5-3---5---5-----5---5---5- 
E----------------------------- 

G------------------------------ 
D-5-----5---5---5-5---5---5542- 
A---5-3---5---5-----5---5------ 
E------------------------------ 

Chorus but with no extro (just continue on into verse): 

   "I fell into..." 
G------------------------------------------------------------- 
D---------------------------------5---5---5---5---5---5---5--- 
A-5---5--23-3---235---5--23-3---5---5---5---3---5---5---5---5- 
E---5---5-----3-----5---5-----3------------------------------- 

Verse: 

   "The taste..." 
G--------------------------------------------- 
D-5---5---5-----5---5---5---5---5-5---5---5--- 
A---5---3---5-3---5---5---5---5-----5---5---5- 
E--------------------------------------------- 
   "I fell for you..." 
G-------------------------------------- 
D-5---5---5-----5---5---5-5---5---5542- 
A---5---3---5-3---5---5-----5---5------ 
E-------------------------------------- 


Chorus (into horns ending): 

   "I fell into..." 
G-------------------------------------------------------------- 
D---------------------------------5---5---5---5---5---5---5542- 
A-5---5--23-3---235---5--23-3---5---5---5---3---5---5---5------ 
E---5---5-----3-----5---5-----3-------------------------------- 

   "I fell into..." 
G--------------------------------------------------------- 
D---------------------------------5---5---5---5---5---5--- 
A-5---5--23-3---235---5--23-3---5---5---5---3---5---5---5- 
E---5---5-----3-----5---5-----3--------------------------- 
     "and it burns..." 
G-------------------------------------------- 
D-5---5---5---5---5---5---5---5---5---5------ 
A---5---5---5---3---5---5---5---5---5---5---- 
E-------------------------------------------- 

Horns (ending): 

G---------------------------- 
D-5-----5---5---5-5---5------ 
A---5-3---5---5-----5-------- 
E----------------------------  
less
plus
Add to Songbook Print Version How to play lesson Submit videolesson
Click the best TAGS for this song:
None of them

If you can not find the chords or tabs you want, look at our partner E-chords. If you are a premium member, you have total access to our video lessons.

If you find a wrong Bad To Me from Johnny Cash, click the correct button above.

login/signup
my songbooks
my recent views
my submits