Johnny Cash

Walk The Line bass

Johnny Cash

tools Ultimate Tabs

Start AutoScroll Font Size Down Font Size Up

Find us on Facebook

chords
tabs
bass
ukulele keyboards
drums
flute
harmonica
guitar pro
video
Ultimate-Tabs

Walk The Line

G|------------------------------------| 
D|--------------------0---0-0---------| 
A|-------0----0-0-2-4---0-----4-2-0---| 
E|-0-2-4---0------------------------0-| 


G|----------------------------------------------------| 
D|----------------------------------------------------| 
A|-0-0-------2---2-------2-2-2--2-------2---2---2---2-| 
E|-----4-2-0---0---0-2-4----------4-2-0---0---0---0---|  
less
plus
Add to Songbook Print Version How to play lesson Submit videolesson
Click the best TAGS for this song:
None of them
Contributor: timoFran Correct

If you can not find the chords or tabs you want, look at our partner E-chords. If you are a premium member, you have total access to our video lessons.

If you find a wrong Bad To Me from Johnny Cash, click the correct button above.

login/signup
my songbooks
my recent views
my submits