Johnny Cash

Wreck Of The Old 97 tab

Johnny Cash

tools Ultimate Tabs

Start AutoScroll Font Size Down Font Size Up

Find us on Facebook

chords
tabs
bass
ukulele keyboards
drums
flute
harmonica
guitar pro
video
Ultimate-Tabs

Wreck Of The Old 97

I have the solo here; the lyrics and chords were 
previously submitted by "Douglas K. Smith"  
and they look perfect to me. So I only submit intro and solo... 
 
INTRO 
|------------------------------------------| 
|------------------------------------------| 
|------------------------------------------| 
|------------------------------------------| 
|-7-7-8--10--10-10--7-8----7-5-3-----------| 
|------------------------------------------| 
 
SOLO 
|----------------------------------------------| 
|----------------------------------------------| 
|----------------------------------------------| 
|---------------------------------------7--10--| 
|-7-7-8--10--10-10--7-3---5-7-8--8-8--8--------| 
|----------------------------------------------| 
 
|----------------------------------------------| 
|----------------------------------------------| 
|----------------------------------------------| 
|-7--7-7-7-7---10-10-10--9-7--8/9/8/9/8/9------| 
|----------------------------------------------| 
|----------------------------------------------| 
 
|----------------------------------------------| 
|----------------------------------------------| 
|----------------------------------------------| 
|--------------------------------------7--10---| 
|--7-8--10--10-10--7-3---5-7-8--8-8--8---------| 
|----------------------------------------------| 
 
|------------------------------------------| 
|------------------------------------------| 
|------------------------------------------| 
|--7---------------------------------------| 
|-----10--10-10--7-8----7-5-3--------------| 
|------------------------------------------| 
 
Love this song 
Jeroen 
[email protected] 
 
 
 
less
plus
Add to Songbook Print Version How to play lesson Submit videolesson
Click the best TAGS for this song:
None of them
Contributor: dittcarm Correct

If you can not find the chords or tabs you want, look at our partner E-chords. If you are a premium member, you have total access to our video lessons.

If you find a wrong Bad To Me from Johnny Cash, click the correct button above.

login/signup
my songbooks
my recent views
my submits