Johny parris & co

Baby I Can't Stop Myself bass

Johny parris & co

tools Ultimate Tabs

Start AutoScroll Font Size Down Font Size Up

Find us on Facebook

chords
tabs
bass
ukulele
keyboards
drums
flute
harmonica
guitar pro
video
Ultimate-Tabs

Baby I Can't Stop Myself

Tabbed by: 6METAL6BASSIST6
E-mail: [email protected]

Tuning: EADG

0:05

G|----------------------------------------------------------------|
D|------------3-------3-------3---------------3-------3-------3---|
A|1-------------------------------1-------------------------------|
E|----------------------------------------------------------------|


G|----------------------------------------------------------------|
D|------------3-------3-------3---------------3-------3-------3---|
A|1-------------------------------1-------------------------------|
E|----------------------------------------------------------------|

G|----------------------------------------------------------------|
D|------------3-------3-------3---------------3-------3-----------|
A|1-------------------------------1---------------------------1---|
E|----------------------------------------------------------------|

G|------------3-------3-------3---------------3-------3-------3---|
D|1-------------------------------1-------------------------------|
A|----------------------------------------------------------------|
E|----------------------------------------------------------------|

G|----------------------------------------------------------------|
D|------------3-------3-------3---------------3-------3-----------|
A|1-------------------------------1---------------------------1---|
E|----------------------------------------------------------------|

G|----------------3-------------------------------5---------------|
D|1-------1-----------3-------1---3-------3-----------5-------3---|
A|------------1-----------1-------------------3-----------3-------|
E|----------------------------------------------------------------|

G|----------------------------------------------------------------|
D|5-------5---4---3-------3---------------------------------------|
A|----------------------------5---3-----------3-----------3-------|
E|----------------------------------------------------------------|

0:36

G|----------------------------------------------------------------|
D|8-----------8---7-----------7---5-----------5---3-----------3---|
A|----------------------------------------------------------------|
E|----------------------------------------------------------------|

G|----------------------------------------------------------------|
D|------------------------------------------------3-------3---/---|
A|6-----------6---5-----------5---3-----------3-------------------|
E|----------------------------------------------------------------|

G|----------------------------------------------------------------|
D|8-----------8---7-----------7---5-----------5---3-----------3---|
A|----------------------------------------------------------------|
E|----------------------------------------------------------------|

G|----------------------------------------------------------------|
D|--------------------------------------------------------5-------|
A|6-----------6---5-----------5---3-----------3---3-----------3---|
E|----------------------------------------------------------------|

G|----------------------------------------------------------------|
D|3-----------3---3---------------3-----------3---3-------3-------|
A|----------------------------3-----------------------------------|
E|----------------------------------------------------------------|

0:58

G|----------------------------------------------------------------|
D|------------3-------3-------3---------------3-------3-------3---|
A|1-------------------------------1-------------------------------|
E|----------------------------------------------------------------|

G|----------------------------------------------------------------|
D|------------3-------3-------3---------------3-------3-----------|
A|1-------------------------------1---------------------------1---|
E|----------------------------------------------------------------|

G|------------3-------3-------3---------------3-------3-------3---|
D|1-------------------------------1-------------------------------|
A|----------------------------------------------------------------|
E|----------------------------------------------------------------|

G|----------------------------------------------------------------|
D|------------3-------3-------3---------------3-------3-----------|
A|1-------------------------------1---------------------------1---|
E|----------------------------------------------------------------|

G|------------------------------------------------5---------------|
D|1-------1-------1-------1---2---3-------3-----------5-------3---|
A|------------1-------1-----------------------3-----------3-------|
E|----------------------------------------------------------------|

G|----------------------------------------------------------------|
D|5-------5---4---3-------3-------------------------------5---/---|
A|----------------------------5---3-----------3-------------------|
E|----------------------------------------------------------------|

1:25

G|----------------------------------------------------------------|
D|8-----------8---7-----------7---5-----------5---3-----------3---|
A|----------------------------------------------------------------|
E|----------------------------------------------------------------|

G|----------------------------------------------------------------|
D|------------------------------------------------3-------3---/---|
A|6-----------6---5-----------5---3-----------3-------------------|
E|----------------------------------------------------------------|

G|----------------------------------------------------------------|
D|8-----------8---7-----------7---5-----------5---3-----------3---|
A|----------------------------------------------------------------|
E|----------------------------------------------------------------|

G|----------------------------------------------------------------|
D|--------------------------------------------------------5-------|
A|6-----------6---5-----------5---3-----------3---3-----------3---|
E|----------------------------------------------------------------|

G|----------------------------------------------------------------|
D|3-----------3---3---------------3-----------3---3-------3-------|
A|----------------------------3-----------------------------------|
E|----------------------------------------------------------------|

1:47

G|----------------------------------------------------------------|
D|------------3-------3-------3---------------3-------3-------3---|
A|1-------------------------------1-------------------------------|
E|----------------------------------------------------------------|

G|----------------------------------------------------------------|
D|------------3-------3-------3---------------3-------3-----------|
A|1-------------------------------1---------------------------1---|
E|----------------------------------------------------------------|

G|------------3-------3-------3---------------3-------3-------3---|
D|1-------------------------------1-------------------------------|
A|----------------------------------------------------------------|
E|----------------------------------------------------------------|

G|----------------------------------------------------------------|
D|------------3-------3-------3---------------3-------3-----------|
A|1-------------------------------1---------------------------1---|
E|----------------------------------------------------------------|

G|----------------3-------------------------------5---------------|
D|1-------1-----------3-------1---3-------3-----------5-------3---|
A|------------1-----------1-------------------3-----------3-------|
E|----------------------------------------------------------------|

G|----------------------------------------------------------------|
D|5-------5---4---3-------3-------------------------------5---/---|
A|----------------------------5---3-----------3-------------------|
E|----------------------------------------------------------------|

2:14 Until fadeout.

G|----------------------------------------------------------------|
D|8-----------8---7-----------7---5-----------5---3-----------3---|
A|----------------------------------------------------------------|
E|----------------------------------------------------------------|

G|----------------------------------------------------------------|
D|------------------------------------------------3---------------|
A|6-----------6---5-----------5---3-----------3-------------------|
E|----------------------------------------------------------------|

G|----------------------------------------------------------------|
D|8-----------8---7-----------7---5-----------5---3-----------3---|
A|----------------------------------------------------------------|
E|----------------------------------------------------------------|

G|----------------------------------------------------------------|
D|--------------------------------------------------------5-------|
A|6-----------6---5-----------5---3-----------3---3-----------3---|
E|----------------------------------------------------------------|

G|----------------------------------------------------------------|
D|3-----------3---3---------------3-----------3---3-------3---/---|
A|----------------------------3-----------------------------------|
E|----------------------------------------------------------------|
less
plus
Add to Songbook Print Version How to play lesson Submit videolesson
Click the best TAGS for this song:
None of them
Contributor: Anonymous Correct

If you can not find the chords or tabs you want, look at our partner E-chords. If you are a premium member, you have total access to our video lessons.

If you find a wrong Bad To Me from Johny parris & co, click the correct button above.

login/signup
my songbooks
my recent views
my submits