Journey

Troubled Child tab

Journey

tools Ultimate Tabs

Start AutoScroll Font Size Down Font Size Up

Find us on Facebook

chords
tabs
bass
ukulele
keyboards
drums
flute
harmonica
guitar pro
video
Ultimate-Tabs

Troubled Child

-----------------------------------------------------------------------------
                                  
                       Troubled Child - Journey (GUITAR)
            
-----------------------------------------------------------------------------
Tabbed by: Scotto10

Tuning: Standard tuning

Uploaded Sept 27 2019

=============================================================================

Guitar



     H.               H.              H.              Q    Q    Q     
E||----------------|---------------|---------------|-----------------|
B||----------------|---------------|---------------|--8----6----5----|
G||--7b------------|--L------------|--L------------|-----------------|
D||----------------|---------------|---------------|-----------------|
A||----------------|---------------|---------------|-----------------|
E||----------------|---------------|---------------|-----------------|


  H.               H.              H.              H.            
----------------|---------------|---------------|---------------|
----------------|---------------|---------------|---------------|
--7b------------|--L------------|--L------------|--L------------|
----------------|---------------|---------------|---------------|
----------------|---------------|---------------|---------------|
----------------|---------------|---------------|---------------|


  H.               H.              H.              Q    Q    Q     
----------------|---------------|---------------|-----------------|
----------------|---------------|---------------|--8----6----5----|
--7b------------|--L------------|--L------------|-----------------|
----------------|---------------|---------------|-----------------|
----------------|---------------|---------------|-----------------|
----------------|---------------|---------------|-----------------|


  H.               H.              H.              H.            
----------------|---------------|---------------|---------------|
----------------|---------------|---------------|---------------|
--7b------------|--L------------|--L------------|--L------------|
----------------|---------------|---------------|---------------|
----------------|---------------|---------------|---------------|
----------------|---------------|---------------|---------------|


  Am7                   Am7/F                   Am7/G                 
  PM  PM PM PM PM       PM    PM PM PM PM       PM    PM PM PM PM     
  E   E  E  E  E  E     E     E  E  E  E  E     E     E  E  E  E  E   
---------------------|-----------------------|-----------------------|
------------------5--|--------------------8--|--------------------6--|
------5--4-----4-----|--------5--4-----4-----|--------5--4-----4-----|
--7---------7--------|--7-----------7--------|--7-----------7--------|
---------------------|-----------------------|-----------------------|
---------------------|-----------------------|-----------------------|


                       Am7                   Am7/F                 
  PM PM PM PM          PM  PM PM PM PM       PM    PM PM PM PM     
  E  E  E  E  E  E     E   E  E  E  E  E     E     E  E  E  E  E   
--------------------|---------------------|-----------------------|
--------------8-----|------------------5--|--------------------8--|
--------7-----------|------5--4-----4-----|--------5--4-----4-----|
--7--5-----5-----5--|--7---------7--------|--7-----------7--------|
--------------------|---------------------|-----------------------|
--------------------|---------------------|-----------------------|


  Am7/G                                        Am7/E                 
  PM    PM PM PM PM       PM PM PM PM          PM    PM PM PM PM PM  
  E     E  E  E  E  E     E  E  E  E  E  E     E     E  E  E  E  E   
-----------------------|--------------------|-----------------------|
--------------------6--|--------------8-----|-----------------------|
--------5--4-----4-----|--------7-----------|--------4--5-----4--5--|
--7-----------7--------|--7--5-----5-----5--|--7-----------7--------|
-----------------------|--------------------|-----------------------|
-----------------------|--------------------|-----------------------|


  Fmaj9                   G                                       
  PM    PM PM PM PM       PM PM PM PM    PM       PM    PM        
  E     E  E  E  E  E     E  E  E  E  E  E     E  E  E  E  E  E   
--------------------0--|--------------------|--5-----8-----7-----|
--------1--3-----3-----|--------5-----8-----|-----------------8--|
-----------------------|-----7-----------7--|-----7-----7--------|
--3-----------3--------|--5--------5--------|--------------------|
-----------------------|--------------------|--------------------|
-----------------------|--------------------|--------------------|


  Am7/E                   Fmaj9                   G                  
  PM    PM PM PM PM PM    PM    PM PM PM PM       PM PM PM PM    PM  
  E     E  E  E  E  E     E     E  E  E  E  E     E  E  E  E  E  E   
-----------------------|--------------------0--|--------------------|
-----------------------|--------1--3-----3-----|--------5-----8-----|
--------4--5-----4--5--|-----------------------|-----7-----------7--|
--7-----------7--------|--3-----------3--------|--5--------5--------|
-----------------------|-----------------------|--------------------|
-----------------------|-----------------------|--------------------|


                       Am7                   Am7                 
     PM    PM          PM  PM PM PM PM       PM  PM PM PM PM     
  E  E  E  E  E  E     E   E  E  E  E  E     E   E  E  E  E  E   
--5-----8-----7-----|---------------------|---------------------|
-----------------8--|------------------5--|------------------8--|
-----7-----7--------|------5--4-----4-----|------5--4-----4-----|
--------------------|--7---------7--------|--7---------7--------|
--------------------|---------------------|---------------------|
--------------------|---------------------|---------------------|


  Am7                                        Am7                 
  PM  PM PM PM PM       PM PM PM PM          PM  PM PM PM PM     
  E   E  E  E  E  E     E  E  E  E  E  E     E   E  E  E  E  E   
---------------------|--------------------|---------------------|
------------------6--|--------------8-----|------------------5--|
------5--4-----4-----|--------7-----------|------5--4-----4-----|
--7---------7--------|--7--5-----5-----5--|--7---------7--------|
---------------------|--------------------|---------------------|
---------------------|--------------------|---------------------|


  Am7                   Am7                                      
  PM  PM PM PM PM       PM  PM PM PM PM       PM PM PM PM        
  E   E  E  E  E  E     E   E  E  E  E  E     E  E  E  E  E  E   
---------------------|---------------------|--------------------|
------------------8--|------------------6--|--------------8-----|
------5--4-----4-----|------5--4-----4-----|--------7-----------|
--7---------7--------|--7---------7--------|--7--5-----5-----5--|
---------------------|---------------------|--------------------|
---------------------|---------------------|--------------------|


  Am7/E                   Fmaj9                   G                  
  PM    PM PM PM PM PM    PM    PM PM PM PM       PM PM PM PM    PM  
  E     E  E  E  E  E     E     E  E  E  E  E     E  E  E  E  E  E   
-----------------------|--------------------0--|--------------------|
-----------------------|--------1--3-----3-----|--------5-----8-----|
--------4--5-----4--5--|-----------------------|-----7-----------7--|
--7-----------7--------|--3-----------3--------|--5--------5--------|
-----------------------|-----------------------|--------------------|
-----------------------|-----------------------|--------------------|


                       Am7/E                   Fmaj9                 
     PM    PM          PM    PM PM PM PM PM    PM    PM PM PM PM     
  E  E  E  E  E  E     E     E  E  E  E  E     E     E  E  E  E  E   
--5-----8-----7-----|-----------------------|--------------------0--|
-----------------8--|-----------------------|--------1--3-----3-----|
-----7-----7--------|--------4--5-----4--5--|-----------------------|
--------------------|--7-----------7--------|--3-----------3--------|
--------------------|-----------------------|-----------------------|
--------------------|-----------------------|-----------------------|


  G                                         Am7                 G/A             
  PM PM PM PM    PM       PM    PM          PM                  PM              
  E  E  E  E  E  E     E  E  E  E  E  E     Q     Q     Q       Q    Q    Q     
--------------------|--5-----8-----7-----|--------8-----8----|-------7----7----|
--------5-----8-----|-----------------8--|-------10----10----|-------8----8----|
-----7-----------7--|-----7-----7--------|--------9-----9----|-------7----7----|
--5--------5--------|--------------------|-------------------|-----------------|
--------------------|--------------------|--0----------------|--0--------------|
--------------------|--------------------|-------------------|-----------------|


  F/A               Em/A              Am7                 G/A             
  PM                PM                PM                  PM              
  Q    Q    Q       Q    Q    Q       Q     Q     Q       Q    Q    Q     
-------5----5----|-------3----3----|--------8-----8----|-------7----7----|
-------6----6----|-------5----5----|-------10----10----|-------8----8----|
-------5----5----|-------4----4----|--------9-----9----|-------7----7----|
-------7----7----|-----------------|-------------------|-----------------|
--0--------------|--0--------------|--0----------------|--0--------------|
-----------------|-----------------|-------------------|-----------------|


  F/A               Em/A             Am7                   G                  
  PM                PM               PM  PM PM PM    PM    PM PM PM PM    PM  
  Q    Q    Q       Q    H           E   E  E  E  E  E     E  E  E  E  E  E   
-------5----5----|-------3--------|---------------------|--------------------|
-------6----6----|-------5--------|---------5-----8-----|--------3-----6-----|
-------5----5----|-------4--------|------4-----4--------|-----2-----2-----2--|
-----------------|----------------|--7---------------7--|--5-----------------|
--0--------------|--0-------------|---------------------|--------------------|
-----------------|----------------|---------------------|--------------------|


  Fmaj9                  Am7                   Am7                 
  PM    PM PM PM         PM  PM PM PM    PM    PM  PM PM PM    PM  
  E     E  E  E  Q       E   E  E  E  E  E     E   E  E  E  E  E   
-----------------0----|---------------5-----|---------------------|
-----------1----------|---------5--------5--|---------5-----8-----|
--------0-----0-------|------4-----4--------|------4-----4--------|
--3-------------------|--7------------------|--7---------------7--|
----------------------|---------------------|---------------------|
----------------------|---------------------|---------------------|


  G                    Fmaj9                  G/A                 
  PM PM PM PM    PM    PM    PM PM PM             PM PM       PM  
  E  E  E  E  E  E     E     E  E  E  Q       E   E  E  E  E  E   
--------------------|-----------------0----|---------------------|
--------3-----6-----|-----------1----------|---------------------|
-----2-----2-----2--|--------0-----0-------|--9---------7--L-----|
--5-----------------|--3-------------------|--7---------5--L-----|
--------------------|----------------------|--0---0--0--0--L--0--|
--------------------|----------------------|---------------------|


  D/A                   Dm/A                   Am7                 
      PM PM PM PM PM         PM PM    PM           PM PM PM PM PM  
  E   E  E  E  E  E     E    E  E  E  E  E     E   E  E  E  E  E   
---------------------|----------------------|---------------------|
---------------------|----------------------|---------------------|
--7------------------|--7----------5--L--4--|--5------------------|
--4------------------|--3----------2--L--0--|--2------------------|
--0---0--0--0--0--0--|--0----0--0--0--0--0--|--0---0--0--0--0--0--|
---------------------|----------------------|---------------------|


  G/A                   D/A                   Dm/A                 
      PM PM       PM        PM PM PM PM PM         PM PM    PM     
  E   E  E  E  E  E     E   E  E  E  E  E     E    E  E  E  E  E   
---------------------|---------------------|----------------------|
---------------------|---------------------|----------------------|
--9---------7--L-----|--7------------------|--7----------5--L--4--|
--7---------5--L-----|--4------------------|--3----------2--L--0--|
--0---0--0--0--L--0--|--0---0--0--0--0--0--|--0----0--0--0--0--0--|
---------------------|---------------------|----------------------|


  Am7                   G/A                   D/A                 
      PM PM PM PM PM        PM PM       PM        PM PM PM PM PM  
  E   E  E  E  E  E     E   E  E  E  E  E     E   E  E  E  E  E   
---------------------|---------------------|---------------------|
---------------------|---------------------|---------------------|
--5------------------|--9---------7--L-----|--7------------------|
--2------------------|--7---------5--L-----|--4------------------|
--0---0--0--0--0--0--|--0---0--0--0--L--0--|--0---0--0--0--0--0--|
---------------------|---------------------|---------------------|


  Dm/A                   Am7                   G/A                 
       PM PM    PM           PM PM PM PM PM        PM PM       PM  
  E    E  E  E  E  E     E   E  E  E  E  E     E   E  E  E  E  E   
----------------------|---------------------|---------------------|
----------------------|---------------------|---------------------|
--7----------5--L--4--|--5------------------|--9---------7--L-----|
--3----------2--L--0--|--2------------------|--7---------5--L-----|
--0----0--0--0--0--0--|--0---0--0--0--0--0--|--0---0--0--0--L--0--|
----------------------|---------------------|---------------------|


  D/A                   Dm/A                   Am7                              
      PM PM PM PM PM         PM PM    PM                                        
  E   E  E  E  E  E     E    E  E  E  E  E     H        E  E     H.             
---------------------|----------------------|-----------------|----------------|
---------------------|----------------------|-----------------|----------------|
--7------------------|--7----------5--L--4--|--5--------L-----|--7b------------|
--4------------------|--3----------2--L--0--|--2--------L-----|----------------|
--0---0--0--0--0--0--|--0----0--0--0--0--0--|-----------------|----------------|
---------------------|----------------------|-----------------|----------------|


  H.              H.              Q    Q    Q       H.             
---------------|---------------|-----------------|----------------|
---------------|---------------|--8----6----5----|----------------|
--L------------|--L------------|-----------------|--7b------------|
---------------|---------------|-----------------|----------------|
---------------|---------------|-----------------|----------------|
---------------|---------------|-----------------|----------------|


                                                  Am7                 
                                                  PM  PM PM PM PM     
  H.              H.              H.              E   E  E  E  E  E   
---------------|---------------|---------------|---------------------|
---------------|---------------|---------------|------------------5--|
--L------------|--L------------|--L------------|------5--4-----4-----|
---------------|---------------|---------------|--7---------7--------|
---------------|---------------|---------------|---------------------|
---------------|---------------|---------------|---------------------|


  Am7                   Am7                                      
  PM  PM PM PM PM       PM  PM PM PM PM       PM PM PM PM        
  E   E  E  E  E  E     E   E  E  E  E  E     E  E  E  E  E  E   
---------------------|---------------------|--------------------|
------------------8--|------------------6--|--------------8-----|
------5--4-----4-----|------5--4-----4-----|--------7-----------|
--7---------7--------|--7---------7--------|--7--5-----5-----5--|
---------------------|---------------------|--------------------|
---------------------|---------------------|--------------------|


  Am7                   Am7                   Am7                 
  PM  PM PM PM PM       PM  PM PM PM PM       PM  PM PM PM PM     
  E   E  E  E  E  E     E   E  E  E  E  E     E   E  E  E  E  E   
---------------------|---------------------|---------------------|
------------------5--|------------------8--|------------------6--|
------5--4-----4-----|------5--4-----4-----|------5--4-----4-----|
--7---------7--------|--7---------7--------|--7---------7--------|
---------------------|---------------------|---------------------|
---------------------|---------------------|---------------------|


                       Am7/E                   Fmaj9                 
  PM PM PM PM          PM    PM PM PM PM PM    PM    PM PM PM PM     
  E  E  E  E  E  E     E     E  E  E  E  E     E     E  E  E  E  E   
--------------------|-----------------------|--------------------0--|
--------------8-----|-----------------------|--------1--3-----3-----|
--------7-----------|--------4--5-----4--5--|-----------------------|
--7--5-----5-----5--|--7-----------7--------|--3-----------3--------|
--------------------|-----------------------|-----------------------|
--------------------|-----------------------|-----------------------|


  G                                         Am7/E                 
  PM PM PM PM    PM       PM    PM          PM    PM PM PM PM PM  
  E  E  E  E  E  E     E  E  E  E  E  E     E     E  E  E  E  E   
--------------------|--5-----8-----7-----|-----------------------|
--------5-----8-----|-----------------8--|-----------------------|
-----7-----------7--|-----7-----7--------|--------4--5-----4--5--|
--5--------5--------|--------------------|--7-----------7--------|
--------------------|--------------------|-----------------------|
--------------------|--------------------|-----------------------|


  Fmaj9                   G                                       
  PM    PM PM PM PM       PM PM PM PM    PM       PM    PM        
  E     E  E  E  E  E     E  E  E  E  E  E     E  E  E  E  E  E   
--------------------0--|--------------------|--5-----8-----7-----|
--------1--3-----3-----|--------5-----8-----|-----------------8--|
-----------------------|-----7-----------7--|-----7-----7--------|
--3-----------3--------|--5--------5--------|--------------------|
-----------------------|--------------------|--------------------|
-----------------------|--------------------|--------------------|


  Am7                 G/A               F/A               Em/A            
  PM                  PM                PM                PM              
  Q     Q     Q       Q    Q    Q       Q    Q    Q       Q    Q    Q     
--------8-----8----|-------7----7----|-------5----5----|-------3----3----|
-------10----10----|-------8----8----|-------6----6----|-------5----5----|
--------9-----9----|-------7----7----|-------5----5----|-------4----4----|
-------------------|-----------------|-------7----7----|-----------------|
--0----------------|--0--------------|--0--------------|--0--------------|
-------------------|-----------------|-----------------|-----------------|


  Am7                 G/A               F/A               Em/A           
  PM                  PM                PM                PM             
  Q     Q     Q       Q    Q    Q       Q    Q    Q       Q    H         
--------8-----8----|-------7----7----|-------5----5----|-------3--------|
-------10----10----|-------8----8----|-------6----6----|-------5--------|
--------9-----9----|-------7----7----|-------5----5----|-------4--------|
-------------------|-----------------|-----------------|----------------|
--0----------------|--0--------------|--0--------------|--0-------------|
-------------------|-----------------|-----------------|----------------|


  Am7                   G                    Fmaj9                
  PM  PM PM PM    PM    PM PM PM PM    PM    PM    PM PM PM       
  E   E  E  E  E  E     E  E  E  E  E  E     E     E  E  E  Q     
---------------------|--------------------|-----------------0----|
---------5-----8-----|--------3-----6-----|-----------1----------|
------4-----4--------|-----2-----2-----2--|--------0-----0-------|
--7---------------7--|--5-----------------|--3-------------------|
---------------------|--------------------|----------------------|
---------------------|--------------------|----------------------|


  Am7                   Am7                   G                  
  PM  PM PM PM    PM    PM  PM PM PM    PM    PM PM PM PM    PM  
  E   E  E  E  E  E     E   E  E  E  E  E     E  E  E  E  E  E   
---------------5-----|---------------------|--------------------|
---------5--------5--|---------5-----8-----|--------3-----6-----|
------4-----4--------|------4-----4--------|-----2-----2-----2--|
--7------------------|--7---------------7--|--5-----------------|
---------------------|---------------------|--------------------|
---------------------|---------------------|--------------------|


  Fmaj9                  G/A                   D/A                 
  PM    PM PM PM             PM PM       PM        PM PM PM PM PM  
  E     E  E  E  Q       E   E  E  E  E  E     E   E  E  E  E  E   
-----------------0----|---------------------|---------------------|
-----------1----------|---------------------|---------------------|
--------0-----0-------|--9---------7--L-----|--7------------------|
--3-------------------|--7---------5--L-----|--4------------------|
----------------------|--0---0--0--0--L--0--|--0---0--0--0--0--0--|
----------------------|---------------------|---------------------|


  Dm/A                   Am7                   G/A                 
       PM PM    PM           PM PM PM PM PM        PM PM       PM  
  E    E  E  E  E  E     E   E  E  E  E  E     E   E  E  E  E  E   
----------------------|---------------------|---------------------|
----------------------|---------------------|---------------------|
--7----------5--L--4--|--5------------------|--9---------7--L-----|
--3----------2--L--0--|--2------------------|--7---------5--L-----|
--0----0--0--0--0--0--|--0---0--0--0--0--0--|--0---0--0--0--L--0--|
----------------------|---------------------|---------------------|


  D/A                   Dm/A                   Am7                 
      PM PM PM PM PM         PM PM    PM           PM PM PM PM PM  
  E   E  E  E  E  E     E    E  E  E  E  E     E   E  E  E  E  E   
---------------------|----------------------|---------------------|
---------------------|----------------------|---------------------|
--7------------------|--7----------5--L--4--|--5------------------|
--4------------------|--3----------2--L--0--|--2------------------|
--0---0--0--0--0--0--|--0----0--0--0--0--0--|--0---0--0--0--0--0--|
---------------------|----------------------|---------------------|


  G/A                   D/A                   Dm/A                 
      PM PM       PM        PM PM PM PM PM         PM PM    PM     
  E   E  E  E  E  E     E   E  E  E  E  E     E    E  E  E  E  E   
---------------------|---------------------|----------------------|
---------------------|---------------------|----------------------|
--9---------7--L-----|--7------------------|--7----------5--L--4--|
--7---------5--L-----|--4------------------|--3----------2--L--0--|
--0---0--0--0--L--0--|--0---0--0--0--0--0--|--0----0--0--0--0--0--|
---------------------|---------------------|----------------------|


  Am7                   G/A                   D/A                 
      PM PM PM PM PM        PM PM       PM        PM PM PM PM PM  
  E   E  E  E  E  E     E   E  E  E  E  E     E   E  E  E  E  E   
---------------------|---------------------|---------------------|
---------------------|---------------------|---------------------|
--5------------------|--9---------7--L-----|--7------------------|
--2------------------|--7---------5--L-----|--4------------------|
--0---0--0--0--0--0--|--0---0--0--0--L--0--|--0---0--0--0--0--0--|
---------------------|---------------------|---------------------|


  Dm/A                   Am7                                               
       PM PM    PM                                                         
  E    E  E  E  E  E     H        E  E      H.               H.            
----------------------|-----------------|---8------------|---8------------|
----------------------|-----------------|--10------------|--10------------|
--7----------5--L--4--|--5--------L-----|---9------------|---9------------|
--3----------2--L--0--|--2--------L-----|----------------|----------------|
--0----0--0--0--0--0--|-----------------|----------------|----------------|
----------------------|-----------------|----------------|----------------|


  E   E  E  E   E  E     E   E  E  E   E  E     H        E   S  S   
--8---------8---------|--8---------8---------|--7--------L--10p-8h-|
-----10--------10-----|-----10--------10-----|--8--------L---------|
---------9---------9--|---------9---------9--|--7--------L---------|
----------------------|----------------------|---------------------|
----------------------|----------------------|---------------------|
----------------------|----------------------|---------------------|


                                       T        
  |--6--|  |---6--|                    |--3--|  
  S S   S  S  S   S  E    T  T  S  E   S  S  S  
--7-8h-10p-7h-8h-10p-7h--10p-8p-7h-L--17p-7h-8-|
-----------------------------------------------|
-----------------------------------------------|
-----------------------------------------------|
-----------------------------------------------|
-----------------------------------------------|


   T        T         T        T                                           
   |--3--|  |-3|                                                           
   S  S  S  T  S E.   T  T  T  T  Q       H        E  E      H.            
--17p-7h-8-17p-7-L---15p-7h-8-15p-7----|--L--------L-----|---8------------|
---------------------------------------|-----------------|--10------------|
---------------------------------------|-----------------|---9------------|
---------------------------------------|-----------------|----------------|
---------------------------------------|-----------------|----------------|
---------------------------------------|-----------------|----------------|


   H.              E   E  E  E   E  E      E   E  E  E   E  E     H.            
---L------------|--8---------8---------|--10---------8---------|--7------------|
---L------------|-----10--------10-----|------10--------10-----|--8------------|
---L------------|---------9---------9--|----------9---------9--|--7------------|
----------------|----------------------|-----------------------|---------------|
----------------|----------------------|-----------------------|---------------|
----------------|----------------------|-----------------------|---------------|


  H.              H.              H.              H.             
--L------------|--5------------|--3------------|----------------|
--L------------|--6------------|--5------------|--5~------------|
--L------------|--5------------|--4------------|----------------|
---------------|---------------|---------------|----------------|
---------------|---------------|---------------|----------------|
---------------|---------------|---------------|----------------|


  H         E  E       H        E  E     Q     Q     Q      
-------------------|------------5--7--|--7b----7b----7b----|
--6~--------L--L\--|--/8--------------|--------------------|
-------------------|------------------|--------------------|
-------------------|------------------|--------------------|
-------------------|------------------|--------------------|
-------------------|------------------|--------------------|


                                          |--3-| |--3-|                        
    Q     E.  E  E  S    S S E   T T  T T S S  S S  S S E     H         E  E   
--7b----L---L--5--7-|--5-------5-8p-5---5----------------|------------------|
----------------------|----8-8b---------8---8p-5-8p-5------|------------------|
----------------------|-------------------------------7-L--|--7b--------L-----|
----------------------|------------------------------------|------------------|
----------------------|------------------------------------|------------------|
----------------------|------------------------------------|------------------|


   |--6--|  |--6--|               |--6--|  |--6--|                    
   S  S  S  S  S  S  S  S  S  S   S  S  S  S  S  S     H.             
---------------------------------17-------------19-|--19b------------|
--------------------------17-20b----20-17-17-20----|-----------------|
--------------------17-19--------------------------|-----------------|
--17-19-17-17-17-19--------------------------------|-----------------|
---------------------------------------------------|-----------------|
---------------------------------------------------|-----------------|


   Q       E   Q     E      E   E    E   E   Q         Q      E   Q      E   
--19pb----17--20b----L--|--20--19b--17-------------|------------------------|
------------------------|---------------20---L~----|--18b----17--18~----17--|
------------------------|--------------------------|------------------------|
------------------------|--------------------------|------------------------|
------------------------|--------------------------|------------------------|
------------------------|--------------------------|------------------------|


   Q      E   Q     E      E   E   E   E   E   E      H.             
-----------------------|----------17--20--19------|--20b------------|
-------------------17--|--18--20--------------20--|-----------------|
--19b----17--19--------|--------------------------|-----------------|
-----------------------|--------------------------|-----------------|
-----------------------|--------------------------|-----------------|
-----------------------|--------------------------|-----------------|


                             G/A                  D/A                 
                                PM PM       PM        PM PM PM PM PM  
   Q      Q      Q           E  E  E  E  E  E     E   E  E  E  E  E   
--20b----20b----20pbr----|--20-----------------|---------------------|
-------------------------|---------------------|---------------------|
-------------------------|---9--------7--L-----|--7------------------|
-------------------------|---7--------5--L-----|--4------------------|
-------------------------|---0--0--0--0--L--0--|--0---0--0--0--0--0--|
-------------------------|---------------------|---------------------|


  Dm/A                   Am7                   G/A                 
       PM PM    PM           PM PM PM PM PM        PM PM       PM  
  E    E  E  E  E  E     E   E  E  E  E  E     E   E  E  E  E  E   
----------------------|---------------------|---------------------|
----------------------|---------------------|---------------------|
--7----------5--L--4--|--5------------------|--9---------7--L-----|
--3----------2--L--0--|--2------------------|--7---------5--L-----|
--0----0--0--0--0--0--|--0---0--0--0--0--0--|--0---0--0--0--L--0--|
----------------------|---------------------|---------------------|


  D/A                   Dm/A                   Am7                 
      PM PM PM PM PM         PM PM    PM           PM PM PM PM PM  
  E   E  E  E  E  E     E    E  E  E  E  E     E   E  E  E  E  E   
---------------------|----------------------|---------------------|
---------------------|----------------------|---------------------|
--7------------------|--7----------5--L--4--|--5------------------|
--4------------------|--3----------2--L--0--|--2------------------|
--0---0--0--0--0--0--|--0----0--0--0--0--0--|--0---0--0--0--0--0--|
---------------------|----------------------|---------------------|


  G/A                   D/A                   Dm/A                 
      PM PM       PM        PM PM PM PM PM         PM PM    PM     
  E   E  E  E  E  E     E   E  E  E  E  E     E    E  E  E  E  E   
---------------------|---------------------|----------------------|
---------------------|---------------------|----------------------|
--9---------7--L-----|--7------------------|--7----------5--L--4--|
--7---------5--L-----|--4------------------|--3----------2--L--0--|
--0---0--0--0--L--0--|--0---0--0--0--0--0--|--0----0--0--0--0--0--|
---------------------|---------------------|----------------------|


  Am7                   G/A                   D/A                 
      PM PM PM PM PM        PM PM       PM        PM PM PM PM PM  
  E   E  E  E  E  E     E   E  E  E  E  E     E   E  E  E  E  E   
---------------------|---------------------|---------------------|
---------------------|---------------------|---------------------|
--5------------------|--9---------7--L-----|--7------------------|
--2------------------|--7---------5--L-----|--4------------------|
--0---0--0--0--0--0--|--0---0--0--0--L--0--|--0---0--0--0--0--0--|
---------------------|---------------------|---------------------|


  Dm/A                   Am7                                              
       PM PM    PM                                                        
  E    E  E  E  E  E     H        E  E     H.               H.            
----------------------|-----------------|----------------|---------------|
----------------------|-----------------|----------------|---------------|
--7----------5--L--4--|--5--------L-----|--7b------------|--L------------|
--3----------2--L--0--|--2--------L-----|----------------|---------------|
--0----0--0--0--0--0--|-----------------|----------------|---------------|
----------------------|-----------------|----------------|---------------|


  H.              Q    Q    Q       H.               H.            
---------------|-----------------|----------------|---------------|
---------------|--8----6----5----|----------------|---------------|
--L------------|-----------------|--7b------------|--L------------|
---------------|-----------------|----------------|---------------|
---------------|-----------------|----------------|---------------|
---------------|-----------------|----------------|---------------|


  H.              H.              H.               H.            
---------------|---------------|----------------|---------------|
---------------|---------------|----------------|---------------|
--L------------|--L------------|--7b------------|--L------------|
---------------|---------------|----------------|---------------|
---------------|---------------|----------------|---------------|
---------------|---------------|----------------|---------------|


  H.              Q    Q    Q       H.               H.            
---------------|-----------------|----------------|---------------|
---------------|--8----6----5----|----------------|---------------|
--L------------|-----------------|--7b------------|--L------------|
---------------|-----------------|----------------|---------------|
---------------|-----------------|----------------|---------------|
---------------|-----------------|----------------|---------------|


  H.              H.                             
---------------|---------------|---------------||
---------------|---------------|---------------||
--L------------|--L------------|---------------||
---------------|---------------|---------------||
---------------|---------------|---------------||
---------------|---------------|---------------||




Duration Legend
---------------
W - whole
H - half
Q - quarter
E - 8th
S - 16th
T - 32nd
X - 64th
. - note dotted
|-n-|  - n-tuplets


Tablature Legend
----------------
L - tied note
x - dead note
g - grace note
(n) - ghost note
> - accentuded note
NH - natural harmonic
AH - artificial harmonic
TH - tapped harmonic
SH - semi harmonic
PH - pitch harmonic
h - hammer on
p - pull off
b - bend
br - bendRelease
pb - preBend
pbr - preBendRelease
brb - bendReleaseBend

/ - tremolo bar dip

 - tremolo bar dive
-/n - tremolo bar Release up
/n\ - tremolo bar inverted dip
/n - tremolo bar return
-
 - tremolo bar Release down
S - shift slide
s - legato slide
/ -  slide into from below or out of upwards
\ -  slide into from above or out of downwards
~ - vibrato
W - wide vibrato
tr - trill
TP - tremolo picking
T - tapping
S - slap
P - pop
< - fade in
^ - brush up
v - brush down
less
plus
Add to Songbook Print Version How to play lesson Submit videolesson
Click the best TAGS for this song:
None of them
Contributor: Anonymous Correct

If you can not find the chords or tabs you want, look at our partner E-chords. If you are a premium member, you have total access to our video lessons.

If you find a wrong Bad To Me from Journey, click the correct button above.

login/signup
my songbooks
my recent views
my submits