tools Ultimate Tabs

Start AutoScroll Font Size Down Font Size Up

Find us on Facebook

chords
tabs
bass ukulele keyboards
drums
flute
harmonica
guitar pro video
Ultimate-Tabs

Tagpuan

INTRO 
Guitar 1           Guitar 2 
e|----------------| e|----------------------------------| 
B|----------------| B|----------------------------------| 
G|----------------| G|----------------------------------| 
D|---7~-----------| D|---0-9-7-0-5-4-0-2-4-0-5-4-0-2-4--| 
A|---5~-5~-9~-7~--| A|----------------------------------| 
E|------3~-7~-5~--| E|----------------------------------| 
(1x)              (4x) 

0:14 
Guitar 1              Guitar 2 
e|-------------------| e|----------------------------------|----------------------------------| 
B|-------------------| B|----------------------------------|----------------------------------| 
G|-------------------| G|----------------------------------|----------------------------------| 
D|---7---------------| D|---0-9-7-0-5-4-0-2-4-0-5-4-0-2-4--|--0-7-9-0-5-7-0-4-5-0-2-4-0-2-4-0-| 
A|---5---5---9---5---| A|----------------------------------|----------------------------------| 
E|-------3---7---3---| E|----------------------------------|----------------------------------| 
(1x)                   (3x)                                   (1x) *parang 'Hand of Blood' 

VERSE 
Guitar 1 
e|---------0-----------------0---------------0-----------------0----------| 
B|-----3-----3---3-------3-----3---3-----3-----3---3-------3-----3---3----| 
G|-------2-----2-----------2-----2---------2-----2-----------2-----2------| 
D|------------------------------------------------------------------------|  
A|--------------------------------------0---------------0-----------------|  
E|---3----------------3---------------------------------------------------| 

Guitar2 
e-------------|  
B---3~--------|  
G---0~---2~---|  
D--------2~---| (2x) 
A--------0~---|  
E---3~--------| 

PRE-CHORUS 
Guitars 1 & 2 
e|--------------------------------------|  
B|--------------------------------------|  
G|-------------------4444444444444444---|  
D|-------------------2222222222222222---|  
A|---5555555577777777-------------------|  
E|---3333333355555555-------------------| 

CHORUS 
Guitars 1 & 2 
e|-------------------------------------------------------------------------| 
B|-------------------------------------------------------------------------| 
G|-------------------44444444---------------------------44444444-----------| 
D|---77777777--------22222222-----------77777777--------22222222-----------| 
A|---5555555555555555--------55555555---5555555555555555--------77777777---| 
E|-----------33333333--------33333333-----------33333333--------55555555---| 

LAST NOTE before VERSE 
e-------|  
B---3~--|  
G---0~--| 
D-------| 
A-------|  
E---3~--| 

Repeat VERSE, PRE-CHORUS & CHORUS 

02:23 (Guitar 1 & 2) 
e|---------------------|  
B|---------------------|  
G|--------7------------|  
D|--------5------------|  
A|---99-7---5-55-9\7---|  
E|---77-5---3-33-7\5---| 

02:26(Guitars 1 & 2) 
e|--------|      e|----------------------------------| 
B|--------|      B|----------------------------------| 
G|--------|      G|----------------------------------| 
D|---7~---| (2x) D|---0-9-7-0-5-4-0-2-4-0-5-4-0-2-4--| (2x) 
A|---5~---|      A|----------------------------------| 
E|--------|      E|----------------------------------| 

02:33(Guitar 1) 
e|---------------------------------------------------------------------|            
B|---------------------------------------------------------------------|       
G|---------------------------------------------------------------------|       
D|---------------------------------------------------------------------| (2x)  
A|---999999999999999977777777777777775555555555555555555555555555555---|       
E|---777777777777777755555555555555553333333333333333333333333333333---|       

(Guitar 2) 
e|----------------------------------| 
B|----------------------------------| 
G|----------------------------------| 
D|---0-9-7-0-5-4-0-2-4-0-5-4-0-2-4--| (8x) 
A|----------------------------------| 
E|----------------------------------| 

03:02 
e|---------------------------|  
B|---------------------------|  
G|---------------------------|  
D|---------------------------| (2x) 
A|---555555555577777777777---|  
E|---333333333355555555555---| 

Repeat PRE-CHORUS & CHORUS 

03:57 
e|---------------------|  
B|---------------------|  
G|--------7------------|  
D|--------5------------|  
A|---99-7---5-55-9\7---|  
E|---77-5---3-33-7\5---| 


Repeat INTRO 

LAST NOTE 
e|--------|  
B|--------|  
G|--------|  
D|--------|  
A|---55---|  
E|---33---| 

Done!  
less
plus
Add to Songbook Print Version How to play lesson Submit videolesson
Click the best TAGS for this song:
None of them
Contributor: henrla_v Correct

If you can not find the chords or tabs you want, look at our partner E-chords. If you are a premium member, you have total access to our video lessons.

If you find a wrong Bad To Me from Kamikazee, click the correct button above.

login/signup
my songbooks
my recent views
my submits