Kaoma

Lambada bass

Kaoma

tools Ultimate Tabs

Start AutoScroll Font Size Down Font Size Up

Find us on Facebook

chords
tabs
bass
ukulele keyboards
drums
flute
harmonica
guitar pro
video
Ultimate-Tabs

Lambada

Tabbed By : Obnoxious Bread
e-mail: [email protected]
Tuning: Standard E A D G

This is NOT the original, accompanying bass line played in the original song, which is  
already extensively tabbed, but the actual main melody, for bass.
If you are anything like me and enjoy playing bass lines that actually sound like the 
song you're trying to play without having to play together with a guitar, this is for you.

The song is basically composed of two simple riffs, the second is played with slightly 
different endings.
I tabbed the whole songs together with the lyrics to make it easier to read.

Also, this is my first tab. Enjoy!

(Chorando se foi..)
G|---------------------------------------------------------------|
D|--7----5-3-2-0--0-3-2-0---0------------------------------------| x2
A|------------------------3---0---0------------------------------|
E|------------------------------3--------------------------------|

(Chorando estará...)		(Que um dia não soube cuidar)
G|--------------------------|-------------------------------------|
D|--5-5-5-3------0-7--5-3---|-0-3-2--0-----0---0------------------|
A|----------1--1----------1-|----------3-3---3--------------------|
E|--------------------------|-------------------------------------|

(Chorando estará...)		(Que um dia não soube cuidar)
G|--------------------------|------------------------------------|
D|--5-5-5-3------0-7--5-3---|-0-3-2-0------2-5-323---------------|
A|----------1--1----------1-|----------3-3-----------------------|
E|--------------------------|------------------------------------|

REPEATS WITH DIFFERENT LYRICS

(A recordação ..)
G|---------------------------------------------------------------|
D|--7----5-3-2-0--0-3-2-0---0------------------------------------| x2
A|------------------------3---0---0------------------------------|
E|------------------------------3--------------------------------|

(Dança, sol e mar..)		(O amor faz perder encontrar)
G|--------------------------|-------------------------------------|
D|--5-5-5-3------0-7--5-3---|-0-3-2--0-----0---0------------------|
A|----------1--1----------1-|----------3-3---3--------------------|
E|--------------------------|-------------------------------------|

(Lambando estarei ...)		(Por um dia, um instante foi rei )
G|--------------------------|------------------------------------|
D|--5-5-5-3------0-7--5-3---|-0-3-2-0------2-5-3h2h3~------------|
A|----------1--1----------1-|----------3-3-----------------------|
E|--------------------------|------------------------------------|

REPEATS WITH DIFFERENT LYRICS

(A recordação ..)
G|---------------------------------------------------------------|
D|--7----5-3-2-0--0-3-2-0---0------------------------------------| x2
A|------------------------3---0---0------------------------------|
E|------------------------------3--------------------------------|

(Chorando estará...)		(Que um dia não soube cuidar)
G|--------------------------|-------------------------------------|
D|--5-5-5-3------0-7--5-3---|-0-3-2--0-----0---0------------------|
A|----------1--1----------1-|----------3-3---3--------------------|
E|--------------------------|-------------------------------------|

(Canção, riso e dor...)		(Um momento que fica no ar )
G|--------------------------|------------------------------------|
D|--5-5-5-3------0-7--5-3---|-0-3-2-0------2-5-3h2h3~~~~~--------|
A|----------1--1----------1-|----------3-3-----------------------|
E|--------------------------|------------------------------------|

| /  slide up
| \  slide down
| h  hammer-on
| p  pull-off
| ~  vibrato
| +  harmonic
| x  Mute note
less
plus
Add to Songbook Print Version How to play lesson Submit videolesson
Click the best TAGS for this song:
None of them
Contributor: britguit Correct

If you can not find the chords or tabs you want, look at our partner E-chords. If you are a premium member, you have total access to our video lessons.

If you find a wrong Bad To Me from Kaoma, click the correct button above.

login/signup
my songbooks
my recent views
my submits