Kenny Rogers

The Gambler bass

Kenny Rogers

Album:21 Number Ones (Remastered)

Year:2006

tools Ultimate Tabs

Start AutoScroll Font Size Down Font Size Up

Find us on Facebook

chords
tabs
bass
ukulele keyboards
drums
flute
harmonica
guitar pro video
Ultimate-Tabs

The Gambler

Kenny Rogers
The Gambler
By: Tim Alley
[email protected]


INTRO

-----------|---------------------|
-----------|---------------------|
-7-(x7)----|-7-(x6)-------7----7-|
---------7-|---------7-----------|


---------------------------------------------------|
--------------6-7--7-------------------------------|
-7-----7--7-9---------7-----7-----7-----7--7-------|
----7--------------------7-----7-----7--------7--7-|


--------------------------------------------------------|
--------------6-7--7---------6-7--7---------------------|
-7-----7--7-9---------7--7-9---------7--6--------6-7----|
----7-------------------------------------9-7--9------7-|


--------------------------------------------------------|
--------------6-7--7---------6-7--7---------------------|
-7-----7--7-9---------7--7-9---------7-----7--7-------6-|
----7-----------------------------------7--------7--9---|


------------------------------------------------------------------|
----7--------7--7-----------7-------------------------------------|
-7-----7--7--------7-----7-----7--7--------7-----7-----7-----7----|
----------------------7--------------7--7-----7-----7-----7-----7-|


----------------------------------------------------|
---------------7-8--8-------------------------------|
-8-----8--8-10---------8-----8-----8-----8--8-------|
----8---------------------8-----8-----8--------8--8-|


--------------------------------------------------------|
---------------7-8--8----------7-8--8-------------------|
-8-----8--8-10---------8--8-10---------8--8--------8----|
----8----------------------------------------8--8-----8-|


------------------------------------------------------|
---------------7-8--8---------------------------------|
-8-----8--8-10---------8-----8-----8-----8--7---------|
----8---------------------8-----8-----8-------10-8--8-|


------------------------|
----8-----8-------------|
-8-----8-----8-----8----|
----------------8-----8-|


-------------------------------------------------------------|
---------------7-8--8----------7-8--8------------------------|
-8-----8--8-10---------8--8-10---------8-----8--7----------7-|
----8-------------------------------------8-------10-8--10---|


---------------------------------------------------|
----8----------7-8--8----------8-------------------|
-8-----8--8-10---------8----8-----8--8--------8----|
-------------------------8--------------8--8-----8-|


----------------------------------------------------------|
---------------7-8--8----------7-8--8---------------------|
-8-----8--8-10---------8--8-10---------8-----8--7---------|
----8-------------------------------------8-------10-8--8-|


----------------------------------------------------|
----8----------7-8--8----------8--------------------|
-8-----8--8-10---------8----8-----8--7----------7---|
-------------------------8-------------10--8--8---1-|
less
plus
Add to Songbook Print Version How to play lesson Submit videolesson
Click the best TAGS for this song:
None of them
Contributor: H.Aaindi Correct

If you can not find the chords or tabs you want, look at our partner E-chords. If you are a premium member, you have total access to our video lessons.

If you find a wrong Bad To Me from Kenny Rogers, click the correct button above.

login/signup
my songbooks
my recent views
my submits