tools Ultimate Tabs

Start AutoScroll Font Size Down Font Size Up

Find us on Facebook

chords
tabs
bass
ukulele
keyboards
drums
flute
harmonica
guitar pro
video
Ultimate-Tabs

Fisticuffs

Tabbed By Mafyoo


Intro
G|-----------------|
D|-----------------|
A|----2------------|
E|-030--03-5555333-|

G|-----------------|
D|-----------------|
A|----2------------|
E|-030--03-3333000-|

G|-----------------|
D|-----------------|
A|----2------------|
E|-030--03-5555333-|

G|-----------------|
D|-----------------|
A|----2------------|
E|-030--03---------| Not 100% sure this is correct. =P

Verse
G|--------------------------|
D|--------------------------|
A|-5757\(0)------22----55---|
E|------------------33----55| x4 listen to song for timing =

\(0) means slide down the string.


PreChorus
G|----------------------------------------------------------|
D|----------------------------------------------------------|
A|------------------------------5-5-5-5-5-5-5-5-7-7-7-7-7---|
E|-0-0-0-0-0-0-0-0-0-0-0-0-0-0-0----------------------------|

Chorus
G|---------------------------------|
D|---------------------------------|
A|-------------------------33333---| listen out for timing and stops again
E|-000000--333333--555555----------|


Bridge

G|--------------------------------|
D|--------------------------------|
A|--------------------------------|
E|-5-5-5-5-5-5-5-5-5-5-5-5-5-5-33-|

G|--------------------------------|
D|--------------------------------|
A|--------------------------------|
E|-5-5-5-5-5-5-5-5-5-5-5-5-5-5-3--|

G|--------------------------------|
D|--------------------------------|
A|--------------------------------|
E|-555-555-555-55-5-55-555-55-3-3-|

G|--------------------------------------------|
D|--------------------------------------------|
A|-----------------------5555-3333-5-33-7-----|
E|-555-555-555-55-5-5555----------------------| Timing here is odd at the end, will take 
bit of listening to get used to.

After that just chorus and intro. = Have fun! Comment for corrections if you know of any.
less
plus
Add to Songbook Print Version How to play lesson Submit videolesson
Click the best TAGS for this song:
None of them
Contributor: Arqumowp Correct

If you can not find the chords or tabs you want, look at our partner E-chords. If you are a premium member, you have total access to our video lessons.

If you find a wrong Bad To Me from Kids In Glass Houses, click the correct button above.

login/signup
my songbooks
my recent views
my submits