Kiko Loureiro

A Clairvoyance tab

Kiko Loureiro

tools Ultimate Tabs

Start AutoScroll Font Size Down Font Size Up

Find us on Facebook

chords
tabs
bass
ukulele
keyboards
drums
flute
harmonica
guitar pro video
Ultimate-Tabs

A Clairvoyance

		 

E|--------|------------------------------|-------------------------------------------------| 
B|--6/8-6-|------6-8-8--8-----6----8---6-|--------6-5-53-3----8-6-65-5--63--------------| 
G|--------|--5/7-----------------7-------|---7/9-------------------------------------------| 
D|--------|------------------------------|-7-----------------------------------------------| 
A|--------|------------------------------|-------------------------------------------------| 
E|--------|------------------------------|-------------------------------------------------| 



E|--------|------------------------------|-------------------------------------------------| 
B|--6/8-6-|------6-8-8--8-----6----8---6-|--------6-5-53-3----5-3-31---------------------| 
G|--------|--5/7-----------------7-------|---7/9------------------------2/3-2-2/7-7--------| 
D|--------|------------------------------|-7-----------------------------------------------| 
A|--------|------------------------------|-------------------------------------------------| 
E|--------|------------------------------|-------------------------------------------------| 



E|---------------------8--8----|-8-10--10----11-8-8/10-|---8-10-11-10--10-8--8-------------| 
B|---------------8----------8--|-----------------------|-8---------------------------------| 
G|--3/5----5-7-8---------------|-----------------------|-----------------------------------| 
D|-----------------------------|-----------------------|-----------------------------------| 
A|-----------------------------|-----------------------|-----------------------------------| 
E|-----------------------------|-----------------------|-----------------------------------| 



E|-1311-11-10-10---11/13-15--12---15/17-17-|-15--13-|-------13-15-15-13/15-13-10-15-------| 
B|------------------------------------------|--------|-13-15-------------------------------| 
G|------------------------------------------|--------|-------------------------------------| 
D|------------------------------------------|--------|-------------------------------------| 
A|------------------------------------------|--------|-------------------------------------| 
E|------------------------------------------|--------|-------------------------------------| 



E|----------13-12-12-------|-12-------------------------8/10-10----------------------------| 
B|----15-17----------15-15-|----15-15-13-13---1110-10-------------------------------------| 
G|-14----------------------|---------------------------------------------------------------| 
D|-------------------------|---------------------------------------------------------------| 
A|-------------------------|---------------------------------------------------------------| 
E|-------------------------|---------------------------------------------------------------| 



E|----10-12-1412-------------17-14--17-19-14----------------------------------------------| 
B|-12----------------12-15-17------------------17-19-15---15-17-12---15----12--------------| 
G|----------------------------------------------------------------------14----11--9--------| 
D|-----------------------------------------------------------------------------------12----| 
A|-----------------------------------------------------------------------------------------| 
E|-----------------------------------------------------------------------------------------| 



E|-------12-12/14-12-|----10-12-12/14/17--19----22--17-19-----17-----------------17--------| 
B|-12-15-------------|-12--------------------19------------19----17--19-----14-15----------| 
G|-------------------|---------------------------------------------------------------------| 
D|-------------------|---------------------------------------------------------------------| 
A|-------------------|---------------------------------------------------------------------| 
E|-------------------|---------------------------------------------------------------------| 



E|-14-14-------------------------------------------|---------------7-9-10-9-7--7-9---------| 
B|-------1715-15----------------------------------|-----------10/5----------------10-12-7-| 
G|-----------------16-14---14-11-14---11-14/16-----|-----7-9/11----------------------------| 
D|---------------------------------------------12--|-7-9-----------------------------------| 
A|-------------------------------------------------|---------------------------------------| 
E|-------------------------------------------------|---------------------------------------| 



E|----------------------------------------------|----10-12-1412----10-12-14-17----19------| 
B|-8-7-8-7-8-7-8-7-8-10---10-12-----------------|-12-------------12-------------17---------| 
G|------------------------------129----9/11-14-|------------------------------------------| 
D|-----------------------------------12---------|------------------------------------------| 
A|----------------------------------------------|------------------------------------------| 
E|----------------------------------------------|------------------------------------------| 



E|-14-17-22--19----------------------------------------------------------------------------| 
B|--------------19-17-15-17-15/17--15-15-17------15/17-15---14-14-15-----------------------| 
G|------------------------------------------16-----------------------14---16-14-16---------| 
D|-----------------------------------------------------------------------------------------| 
A|-----------------------------------------------------------------------------------------| 
E|-----------------------------------------------------------------------------------------| 



E|---------12/14-12-------------------------------------------14-17-17---14/17-18--17------| 
B|---15-17------------15-17-19-20-19---19-20-20----19-20-21--------------------------------| 
G|-16--------------------------------------------------------------------------------------| 
D|-----------------------------------------------------------------------------------------| 
A|-----------------------------------------------------------------------------------------| 
E|-----------------------------------------------------------------------------------------| 



E|-13/15-13-|------13-15-17-13/15-13----13/15-13-|----------13-12-12--------|-12-10-10-8-8-| 
B|----------|-13/15------------------15----------|----15-17----------15-15--|--------------| 
G|----------|------------------------------------|-14-----------------------|--------------| 
D|----------|------------------------------------|--------------------------|--------------| 
A|----------|------------------------------------|--------------------------|--------------| 
E|----------|------------------------------------|--------------------------|--------------| 



E|-----------------------------------------------------------------------------------------| 
B|-10/11----10----6--6-----------6--------3------------------------------------------------| 
G|------------------7--7---------7--------2------------------------------------------------| 
D|------------------------7--7---7--------0------------------------------------------------| 
A|-----------------------------------------------------------------------------------------| 
E|-----------------------------------------------------------------------------------------|  
less
plus
Add to Songbook Print Version How to play lesson Submit videolesson
Click the best TAGS for this song:
None of them
Contributor: leemelis Correct

If you can not find the chords or tabs you want, look at our partner E-chords. If you are a premium member, you have total access to our video lessons.

If you find a wrong Bad To Me from Kiko Loureiro, click the correct button above.

login/signup
my songbooks
my recent views
my submits