killwitch engage

-the Arms Of Sorrow tab

killwitch engage

tools Ultimate Tabs

Start AutoScroll Font Size Down Font Size Up

Find us on Facebook

chords
tabs
bass
ukulele
keyboards
drums
flute
harmonica
guitar pro
video
Ultimate-Tabs

-the Arms Of Sorrow

correo:[email protected]  
    Intro-Guitar 1  
E---------------------------------|  
B---------------------------------|  
G-----4---3---5---3-----3---5---5-| Repeat 2 times without  
D-4-4---5---4---3---4-4---3---4---| distortion and 3 times  
A---------------------------------| with distortion.  
E---------------------------------|  
     
    Verse-Guitar 1&2  
E--------------------------------------|  
B--------------------------------------|  
G--3-3-3-------3-3-3-------3-3-3-------|  
D--------2-2-2-------2-2-2-------2-2-2-|  
A--------2-2-2-------2-2-2-------2-2-2-|  
E--------0-0-0-------0-0-0-------0-0-0-|  

   Bridge-Guitar 1&2  
E------------4---------------4-----6-----5-|  
B--5-5-5---5---5---5-5-5---5-----4-----3---|  
G--5-5-5-4-------4-5-5-5-4-----5-----5-----|  
D------------------------------------------|  
A------------------------------------------|  
E------------------------------------------|  
     
   Chorus-Guitar 1  
E---------------------|  
B---------------------|  
G---------------------| Repeat as many times needed  
D---------2-2-2-2-2-2-|  
A-2-2-2-2-2-2-2-2-2-2-|  
E-2-2-2-2-0-0-0-------|  

   Chorus-Guitar 2  
E----10-------6---------7-----------6-|  
B--9--------9---------5-----------4---|  
G-8-------6---------4-----------6-----| Repeat as much as  
D-------4---------5-----------7-------| guitar 1 in Chorus  
A---------------6-----------7---------|  
E-------------------------6-----------|  
less
plus
Add to Songbook Print Version How to play lesson Submit videolesson
Click the best TAGS for this song:
None of them
Contributor: gdjpLeos Correct

If you can not find the chords or tabs you want, look at our partner E-chords. If you are a premium member, you have total access to our video lessons.

If you find a wrong Bad To Me from killwitch engage, click the correct button above.

login/signup
my songbooks
my recent views
my submits