killwitch engage

My Last Serenade-killwitch Engage bass

killwitch engage

tools Ultimate Tabs

Start AutoScroll Font Size Down Font Size Up

Find us on Facebook

chords
tabs
bass
ukulele
keyboards
drums
flute
harmonica
guitar pro
video
Ultimate-Tabs

My Last Serenade-killwitch Engage

correo:[email protected] 
Intro (Acustic Guitar) 
  
e|--1--0--1--1----|  
B|--1--1--1--1----|  
G|--2--0--3--3----|  
D|--3--3--3--3----|  X3.5  
A|--3--3--1--1----|  
D|----------------|  
  
First Riff4X  
e|-------------------------------------|  
B|-------------------------------------|  
G|-------------------------------------|  
D|--4P0-0-0-4P0-0-0-4P0-0-0-00000000---|    
A|--4P0-0-0-4P0-0-0-4P0-0-0-00000000---|  
D|--4P0-0-0-4P0-0-0-4P0-0-0-00000000---|  
 PM     . .     . .     . . ........   
  
Verse Riff 4X  
e|----------------------------------------|  
B|----------------------------------------|  
G|3---------------3---------3-------------|  
D|3---------------3---------3-------------|   
A|1-02320--02320--1-0232-00-1-00-5-00-3-00|  
D|--02320--02320----0232-00---00-5-00-3-00|  
PM  .....  .....    .... ..   ..   ..   ..  
  
Pre Chorus X4  
e|--------------------------------------------------  
B|--------------------------------------------------  
G|--------------------------------------------------  
D|0-0-3P0-00-3P0-00-3P0-00-10-9-9/10-7-00-5-00-3-000  
A|0-0-3P0-00-3P0-00-3P0-00--8-7-7/8--5-00-3-00-1-000  
D|0-0-3P0-00-3P0-00-3P0-00--------------------------  
PM. .     ..     ..     ..             ..   ..   ...  
  
Chorus 4x  
e|-------------------------------------------------  
B|-------------------------------------------------  
G|--7-7-77--5-5-55-3-3-33--------------------------  
D|--7-7-77--5-5-55-3-3-33--------------------------  
A|--5-5-55--3-3-33-1-1-11-00--7-0-8p7-----7h8p7-3-0  
D|------------------------00----------0000---------  
PM                        ..          ....         
  
Bridge  
e|----------------------------------------------|  
B|----------------------------------------------|  
G|----------------------------------------------|  
D|-------10h12~-----0000000-0000000-000000-0-3-7|  
A|--000--------10---0000000-0000000-000000-0-3-7|  
D|--000-----------8-0000000-0000000-000000-0-3-7|  
less
plus
Add to Songbook Print Version How to play lesson Submit videolesson
Click the best TAGS for this song:
None of them
Contributor: grunmax Correct

If you can not find the chords or tabs you want, look at our partner E-chords. If you are a premium member, you have total access to our video lessons.

If you find a wrong Bad To Me from killwitch engage, click the correct button above.

login/signup
my songbooks
my recent views
my submits