tools Ultimate Tabs

Start AutoScroll Font Size Down Font Size Up

Find us on Facebook

chords
tabs
bass
ukulele
keyboards
drums
flute
harmonica
guitar pro
video
Ultimate-Tabs

Karma

 

D----------------------------------------------------| 
A----------------------------------------------------| let ring... 
F----------------------------------------------------| 
C----------------------------------------------------| 
G---0------------------------------------------------| 
C---0------------------------------------------------| 

Intro 
D----------------------------------------------------| 
A----------------------------------------------------| x1 
F----------------------------------------------------| 
C----------------------------------------------------| 
G---0-0-0----1--0-0----------------------------------| 
C---0-0-0----1--0-0---0--1h4--1h4--1h4--1h4--1h4-----| 

D----------------------------------------------------| 
A----------------------------------------------------| x7 
F----------------------------------------------------| 
C----------------------------------------------------| 
G---0-0----1--0-0------------------------------------| 
C---0-0----1--0-0---0--1h4--1h4--1h4--1h4--1h4-------| 

D---------| 
A---------| x14 
F---------| 
C---------| 
G---------| 
C---1h4---| 

D-------------        D----------------------| 
A-------------      A------------------------| 
F-------------        F----------------------| 
C-------------        C----------------------| 
G--3h4-0------        G--111--4444-----------| 
C--3h4-0------        C--111--4444-----------| 
(----------------x2--------------------------| 


D-------------        D-----------------------| 
A-------------           A--------------------| 
F-------------        F-----------------------| 
C-------------        C-----------------------| 
G--3h4-0------        G--1--4-----------------| 
C--3h4-0------        C--1--4-----------------| 
(----------------x2---------------------------| 

D---------------------------------------------------| 
A---------------------------------------------------|  x2 
F---------------------------------------------------| 
C---------------------------------------------------| 
G-------------------1111-4444-5555-8888-6666-9999---| 
C-11111111-44444444---------------------------------| 


D--------| 
A--------| 
F--------| 
C--------| 
G--0-----| 
C--0-----| 

verse 1 
D--------------------------------------------------| 
A--------------------------------------------------| x4 
F--------------------------------------------------| 
C-------7707--------7707--------7707--------770----| 
G--0----5505---0----5505---0----5505---0----5503---| 
C--0-----------0-----------0-----------0-------3---| 

D---------------------------------------------------| 
A---------------------------------------------------|  x2 
F---------------------------------------------------| 
C---------------------------------------------------| 
G-------------------1111-4444-5555-8888-6666-9999---| 
C-11111111-44444444---------------------------------| 

Chorus 
D--------------------------------------------------| 
A--------------------------------------------------| x4 
F--------------------------------------------------| 
C--------------------------------------------------| 
G-0000000000000000-77777777-8888-11-33-------------| 
C-0000000000000000-77777777-8888-11-33-------------| 

verse 2 
D-------------        D-------------------------| 
A-------------       x6    A--------------------| 
F-------------        F-------------------------| 
C-------------        C-------------------------| 
G--3h4-0------        G--111--4444--------------| 
C--3h4-0------        C--111--4444--------------| 
(----------------x2-----------------------------| 

Chorus 
D--------------------------------------------------| 
A--------------------------------------------------| x4 
F--------------------------------------------------| 
C--------------------------------------------------| 
G-0000000000000000-77777777-8888-11-33-------------| 
C-0000000000000000-77777777-8888-11-33-------------| 

Bridge 1 
D------------------------------------------------| 
A------------------------------------------------| x4 
F------------------------------------------------| 
C------------------------------------------------| 
G-0-12--0-11--0-12--0-11--0-12--0-11--0-8-8-11---| 
C-0-12--0-11--0-12--0-11--0-12--0-11--0-8-8-11---| 

Bridge 2 
D------------------------------------------------| 
A------------------------------------------------| x4 
F------------------------------------------------| 
C------------------------------------------------| 
G-0-12-12-11--0-12-12-11--0-12-12-11--0-8-8-11---| 
C-0-12-12-11--0-12-12-11--0-12-12-11--0-8-8-11---| 

Outro 
D--------------------------------------------------| 
A--------------------------------------------------| x1 
F--------------------------------------------------| 
C--------------------------------------------------| 
G---0-0-0----1--0-0--------------------------------| 
C---0-0-0----1--0-0---0--1h4--1h4--1h4--1h4--1h4---| 

D--------------------------------------------------| 
A--------------------------------------------------| x7 
F--------------------------------------------------| 
C--------------------------------------------------| 
G---0-0----1--0-0----------------------------------| 
C---0-0----1--0-0---0--1h4--1h4--1h4--1h4--1h4-----| 

D---------| 
A---------| x14 
F---------| 
C---------| 
G---------| 
C---1h4---| 

D------------------------------------------------| 
A------------------------------------------------| x4 
F------------------------------------------------| 
C------------------------------------------------| 
G-00000000000000-77777777-8888-11-3333-----------| 
C-00000000000000-77777777-8888-11-3333-----------| 

End 




The Tab Piano Sounds Like This... 

Tuning Standard (EADGBe) 

e------------| 
B--13r-------| Repeat Necesary 
G------------| 
D------------| 
A------------| 
E------------| 

Chorus 
e------15--13-----------------15--13-------------------------| 
B--13----------15--16---13------------15----16--15--16---13--| 
G------------------------------------------------------------| 
D------------------------------------------------------------| 
A------------------------------------------------------------| 
E------------------------------------------------------------|  
less
plus
Add to Songbook Print Version How to play lesson Submit videolesson
Click the best TAGS for this song:
None of them
Contributor: 6225holy Correct

If you can not find the chords or tabs you want, look at our partner E-chords. If you are a premium member, you have total access to our video lessons.

If you find a wrong Bad To Me from Lifelover, click the correct button above.

login/signup
my songbooks
my recent views
my submits