Limpbizkit

Behind Blue Eyes (ver. 2) chords

Limpbizkit

tools Ultimate Tabs

Start AutoScroll Font Size Down Font Size Up

Find us on Facebook

chords
tabs
bass
ukulele keyboards
drums
flute
harmonica
guitar pro
video
Ultimate-Tabs

Behind Blue Eyes (ver. 2)

Limp Bizkit - Behind Blue Eyes 
 
Tabbed by: Mads H. K. 
 
E-mail: [email protected] 
 
Tuning: Standard (EADGBe) 
 
Chords: 
 
Asus2: 
 
E--x-- 
B--0-- 
G--2-- 
D--2-- 
A--0-- 
E--0-- 
_________________________________________ 
 
Intro(picking): 
 
e------------0-----0--------------3-----3--------------0-----0--- 
B--------0-----0--------------0-----0--------------3-----3------- 
G------0---0-----0----------0---0-----0----------2---2-----2----- 
D---------------------------------------------------------------- 
A-------------------------------------------0-------------------- 
E-0--------------------3----------------------------------------- 
 
e------------0-----0--------------0-----0--------------0-----0--- 
B--------3-----3--------------1-----1--------------1-----1------- 
G------2---2-----2----------0---0-----0----------0---0-----0----- 
D---------------------------------------------------------------- 
A-0----------------------3------------------3-------------------- 
E---------------------------------------------------------------- 
 
e------------0-----0- 
B--------0-----0----- 
G------2---2-----2--- 
D-------------------- 
A-0------------------ 
E--------------------
Em G D No one knows what it's like, to be the bad man, C Asus2 To be the sad man, behind blue eyes Em G D No one knows what it's like to be hated, C Asus2 To be fated, to telling only lies Chorus (strum) C D G But my dreams, they aren't as empty, C D E As my conscience seems to be Bm C I have hours, only lonely D A My love is vengeance that's never free (back to picking...) Em G D No one knows what it's like to feel these feelings C A Like I do, and I blame you Em G D No one bites back as hard on their anger C A None of my pain and woe, can show through Chorus (same as verses) No one knows what it's like, to be mistreated to be defeated, behind blue eyes and no one knows how to say, that they're sorry and don't worry, i'm not telling lies Chorus (final verse same as others except end on a strummed "A" chord) No one knows what it's like, to be the bad man To be the sad man, BEHIND BLUE EYES ______________________________
less
plus
Add to Songbook Print Version How to play lesson Submit videolesson
Click the best TAGS for this song:
None of them
Contributor: cargdrea Correct

If you can not find the chords or tabs you want, look at our partner E-chords. If you are a premium member, you have total access to our video lessons.

If you find a wrong Bad To Me from Limpbizkit, click the correct button above.

login/signup
my songbooks
my recent views
my submits