tools Ultimate Tabs

Start AutoScroll Font Size Down Font Size Up

Find us on Facebook

chords
tabs
bass ukulele keyboards drums
flute
harmonica
guitar pro
video
Ultimate-Tabs

Boiler

 
Tablatura por Ryan ([email protected]) e adaptado por [email protected] (Banda Lithium) 
Afinação: C# F# B E G# C# 
~~~~ = alavanca de distorção 
 
Introdução 
 
E------------------------------------------------------- 
B------------------------------------------------------- 
G-7--9--11----5----7--11----5----7--11--17------7----9-- 
D------------------------------------------------------- 
A-5--7---9----3----5---9----3----5---9--15------5----7-- 
E------------------------------------------------------- 
 
 
Chorus - Toque duas vezes (2x) 
E------------|-------------------------------------- 
B------------|-------------------------------------- 
G-9--9-9-9b--|--5--5-5-5-5b-5b------7--7-7-7-7b-7b-- 
D------------|-------------------------------------- 
A-7--7-7-7b--|--3--3-3-3-3b-3b------5--5-5-5-5b-5b-- 
E------------|-------------------------------------- 
 
 
Verso - tocar com efeito delay 
E---------------------------------------------------------- 
B---------------------------------------------------------- 
G-----9-9---------9-9---9-7--------9-9--7----------9-9--7-- 
D---------7------------------------------------------------ 
A-7-7--------5-5-----5----------------------5-5------------ 
E-----------------------------8-8-------------------------- 
 
 
Ponte 
E-------------------------------------- 
B-------------------------------------- 
G-------------------------------------- 
D-2~~~~-----------------------------9-- 
A-2~~~~-----------------------------7-- 
E-0~~~~-------------------------------- 
 
 
Interlúdio 
E---------------------------------------------- 
B---------------------------------------------- 
G-9~~~~-9-------9~~~~-9---------5----------7--- 
D---------------------------------------------- 
A-7~~~~-7-------7~~~~-7---------5----------5--- 
E---------------------------------------------- 
 
 
_______________________________________________________ 
Contribuição: Paulo Sergio([email protected]) 
 
less
plus
Add to Songbook Print Version How to play lesson Submit videolesson
Click the best TAGS for this song:
None of them
Contributor: michcarl Correct

If you can not find the chords or tabs you want, look at our partner E-chords. If you are a premium member, you have total access to our video lessons.

If you find a wrong Bad To Me from Limpbizkit, click the correct button above.

login/signup
my songbooks
my recent views
my submits