Limpbizkit

Don't Go Off Wandering tab

Limpbizkit

tools Ultimate Tabs

Start AutoScroll Font Size Down Font Size Up

Find us on Facebook

chords
tabs
bass
ukulele
keyboards
drums
flute
harmonica
guitar pro
video
Ultimate-Tabs

Don't Go Off Wandering

 
Intro (0:13)(Distortion)  
C#-------------------------------------------------------------  
G#-------------------------------------------------------------  
E----9---9---9---------------------9---9---9-------------------  
B--------------------------------------------------------------  
F#-------------------------------------------------------------  
C#---8---8---8---0-0---0-0-0-------8---8---8---0-0---0-0-0-----  
 
Verse 1 (0:21)(Clean w/ Delay)  
C#-------------------------------------------------------------  
G#-------------------------------------------------------------  
E--------------------9-------9----7---7--------7---7/9---9--9--  
B----------9---------------------------------------------------  
F#---7---------------------------------------------------------  
C#--------------8----------------------------------------------  
 
Chorus  
Gtr 1 (0:52)(Clean w/ Delay)  
C#-------------------------------------------------------------  
G#-------------------------------------------------------------  
E------9--------------------------------7--9--7---7--9------9--  
B--------------------------------------------------------------  
F#-------------------------------------------------------------  
C#-------------------------------------------------------------  
 
Gtr 2 (0:52)(Distortion)  
C#-------------------------------------------------------------  
G#-------------------------------------------------------------  
E----------------------------9--9---9--9--7----7---------------  
B-----9-9--9--9-10-9--9-9-9------------------------------------  
F#----7-7--7--7--7-7--7-7-7------------------------------------  
C#---------------------------8--8---8--8--8----8---------------  
 
Verse 2 (1:23)(Distortion)  
C#-------------------------------------------------------------  
G#-------------------------------------------------------------  
E-------------13--------------15-------------13-------------15-  
B--------------------------------------------------------------  
F#------------------13---13------------------------13---13-----  
C#---12---12------------------------12---12--------------------  
 
Bridge (2:02)                     (2:11)  
C#-------------------------------|-----------------------------  
G#-------------------------------|-----------------------------  
E--------------------------------|-----------------------------  
B--------------------------------|-----------------------------  
F#-----------14------13----------|-----------14------13--------  
C#----/12-------------------11---|---12-------------------11---  
 
Breakdown  
C#-------------------------------------------------------------  
G#-------------------------------------------------------------  
E--------------------------------------------------------------  
B--------------------------------------------------------------  
F#--------------14-----------13-----------17-----------16------  
C#-----12-12-12-----11-11-11-----15-15-15-----14-14-14---------  
 
Breakdown 2  
C#-------------------------------------------------------------  
G#-------------------------------------------------------------  
E--------------------------------------------------------------  
B--------------------------------------------------------------  
F#-------------14----------------------------17----------------  
C#----12-12-12------0-0--0-0-0------15-15-15-----0-15--0-0-0---  
                                                     * Harmonic  
   
 
 
_______________________________________________________ 
Contribuição: wilerson nichelle([email protected]) 
 
less
plus
Add to Songbook Print Version How to play lesson Submit videolesson
Click the best TAGS for this song:
None of them
Contributor: SergJKof Correct

If you can not find the chords or tabs you want, look at our partner E-chords. If you are a premium member, you have total access to our video lessons.

If you find a wrong Bad To Me from Limpbizkit, click the correct button above.

login/signup
my songbooks
my recent views
my submits