Limpbizkit

Eat you alive tab

Limpbizkit

tools Ultimate Tabs

Start AutoScroll Font Size Down Font Size Up

Find us on Facebook

chords
tabs
bass
ukulele
keyboards
drums
flute
harmonica
guitar pro
video
Ultimate-Tabs

Eat you alive

 
Início: 
 
 C#|-------------|  
 G#|-------------|  
E|--------------| 
B|---4-4---5---5| (8 vezes) 
 F#|--4-4---5---5|  
 C#|0-2-2-0-3-0-3|  
 
Hey you miss I don´t know... 
 
 C#|---------------------|  
 G#|---------------------|  
E|----------------------| 
B|---4-4---5---5---4-4-4| (4 vezes) OBS: Este trecho faz abafando  
 F#|--4-4---5---5---4-4-4|  
 C#|0-2-2-0-3-0-3-0-2-2-2|  
 
No doubt that... 
 
 C#|---------------------|          C#|---------------------|   
 G#|---------------------|          G#|---------------------|   
E|----------------------|          E|--11-11-11-11^--12----|  
B|---4-4---5---5---4-4-4|          B|----------------------|   
 F#|--4-4---5---5---4-4-4|          F#|--9--9--9--9^--10----|    
 C#|0-2-2-0-3-0-3-0-2-2-2|          C#|---------------------|   
 
I´d eat you alive... 
 C#|-------------------------|  
 G#|-------------------------|  
E|--------------------------| 
B|---4-4---5---5---4-4-4-4h-| (4 vezes) OBS: O h é o harmônico para chegar no 
 F#|--4-4---5---5---4-4-4-4h-|                 tom da música use a alavanca 
 C#|0-2-2-0-3-0-3-0-2-2-2----|  
 
 
I´m sorry, so sorry (damn, you´re so hot) 
 
 C#|------------------------------------------------------------------|  
 G#|------------------------------------------------------------------|  
E|-7--7-7-7-7-7-7-9--9-9-9-11-11-11-11-------------------------------| (4 vezes) 
B|-7--7-7-7-7-7-7-9--9-9-9-11-11-11-11--4--4-4-4-4--4-4-4-4--4-4-4-4-| 
 F#|5--5-5-5-5-5-5-7--7-7-7-9--9--9--9---4--4-4-4-4--4-4-4-4--4-4-4-4-|  
 C#|-------------------------------------2--2-2-2-2--2-2-2-2--2-2-2-2-|  
 
I´m just wanna looking to... 
 
 C#|----10-------10-----10------10---|  
 G#|--10--10---10--10-10--10--10--10-|  
E|-12-------10------9------10-------| 
B|----------------------------------| 
 F#|---------------------------------|  
 C#|---------------------------------|  
 
 
Correção: Rodrigo([email protected])_______________________________________________________ 
Contribuição: Jonas_sk8([email protected]) 
Correção: Victor Lopes ([email protected])  
Correção: Rodrigo Vítor Araujo Amorim ([email protected]) 
 
less
plus
Add to Songbook Print Version How to play lesson Submit videolesson
Click the best TAGS for this song:
None of them
Contributor: Maryjmra Correct

If you can not find the chords or tabs you want, look at our partner E-chords. If you are a premium member, you have total access to our video lessons.

If you find a wrong Bad To Me from Limpbizkit, click the correct button above.

login/signup
my songbooks
my recent views
my submits