tools Ultimate Tabs

Start AutoScroll Font Size Down Font Size Up

Find us on Facebook

chords
tabs
bass
ukulele
keyboards
drums
flute
harmonica
guitar pro
video
Ultimate-Tabs

Faith

 
Transcribed by: Mike York  
Email: [email protected]  
 
This tab is 100% accurate and it is for people who dont want to tune their 
guitar way down where wes does so, lets go! Also it is best to use the  
Ibanez Tone-Lok pedals to do some of the stuff in the song, anyway..... 
 
 
-7xxxx7xx77xx7xxxx7xx77xx7xxxx7xx77xx7xxxxx7----------------------------------  
-7xxxx7xx77xx7xxxx7xx77xx7xxxx7xx77xx7xxxxx7----------------------------------  
-8xxxx8xx88xx8xxxx8xx88xx8xxxx8xx88xx8xxxxx8----------------------------------  
-9xxxx9xx99xx9xxxx9xx99xx9xxxx9xx99xx9xxxxx9----------------------------------  
-9xxxx9xx99xx9xxxx9xx99xx9xxxx9xx99xx9xxxxx9----------------------------------  
-7xxxx7xx77xx7xxxx7xx77xx7xxxx7xx77xx7xxxxx7----------------------------------  
                                                                                
 
-7xxxx7xx77xx7xxxx7xx77xx5xxxx5xx55xx7xxxx7xx77-------------------------------  
-7xxxx7xx77xx7xxxx7xx77xx5xxxx5xx55xx7xxxx7xx77-------------------------------  
-8xxxx8xx88xx8xxxx8xx88xx6xxxx6xx66xx8xxxx8xx88-------------------------------  
-9xxxx9xx99xx9xxxx9xx99xx7xxxx7xx77xx9xxxx9xx99-------------------------------  
-9xxxx9xx99xx9xxxx9xx99xx7xxxx7xx77xx9xxxx9xx99-------------------------------  
-7xxxx7xx77xx7xxxx7xx77xx5xxxx5xx55xx7xxxx7xx77-------------------------------  
 "Well I guess it would be nice..."        Reapeat until Pre-Chorus             
 
-------------------------------------------------------------------2----------  
------------------------------------------------------------------------------  
------8--------6---------8-----------6--------4-------3-----3hp4--------------  
--------9--------7---------9-----------7--------5-------4---------------------  
----9--------7--------9------------7--------5-------4-------------------------  
--7--------5--------7------------5--------3-------2---------------------------  
 Pre-Chorus "But I need some time off, from that emotion.."                     
 
------------------------------------------------------------------------------  
------------------------------------------------------------------------------  
-8-8-8-8-8--------------------------------------------------------------------  
-9-9-9-9-9--------------------------------------------------------------------  
-9-9-9-9-9--------------------------------------------------------------------  
-7-7-7-7-7--------------------------------------------------------------------  
          "GOTTA HAVE FAITH!" Distortion (heavy) Repeat Until Chrus Ends        
 
------------------------------------------------------------------------------  
------------------------------------------------------------------------------  
------------------------------------------------------------------------------  
------------------------------------------------------------------------------  
------------------------------------------------------------------------------  
------------------------------------------------------------------------------  
 Repeat the "Well, I guess it would be nice" column, but with distortion        
 
------------------------------------------------------------------------------  
------------------------------------------------------------------------------  
------------------------------------------------------------------------------  
------------------------------------------------------------------------------  
------------------------------------------------------------------------------  
------------------------------------------------------------------------------  
 Then go back to the pre-chorus with a Chorus pedal                             
 
------------------------------------------------------------------------------  
------------------------------------------------------------------------------  
------------------------------------------------------------------------------  
------------------------------------------------------------------------------  
------------------------------------------------------------------------------  
------------------------------------------------------------------------------  
 Then it is the Chorus again with BIG distortion                                
 
------------------------------------------------------------------------------  
------------------------------------------------------------------------------  
------------------------------------------------------------------------------  
------------------------------------------------------------------------------  
------------------------------------------------------------------------------  
------------------------------------------------------------------------------  
 Then "Get the F* up!" And play this with distortion with the turntables      
 
------------------------------------------------------------------------------  
------------------------------------------------------------------------------  
------------------------------------------------------------------------------  
-77777777888888---------------------------------------------------------------  
-77777777888888---------------------------------------------------------------  
-55555555666666---------------------------------------------------------------  
 Stop when fred says "Faith!" for the last time and then the song ends!         
 
less
plus
Add to Songbook Print Version How to play lesson Submit videolesson
Click the best TAGS for this song:
None of them
Contributor: barnlemu Correct

If you can not find the chords or tabs you want, look at our partner E-chords. If you are a premium member, you have total access to our video lessons.

If you find a wrong Bad To Me from Limpbizkit, click the correct button above.

login/signup
my songbooks
my recent views
my submits