Limpbizkit

It'll be ok tab

Limpbizkit

tools Ultimate Tabs

Start AutoScroll Font Size Down Font Size Up

Find us on Facebook

chords
tabs
bass
ukulele
keyboards
drums
flute
harmonica
guitar pro
video
Ultimate-Tabs

It'll be ok

 
Wes is now playing with a 6-string geetarz tuned  C# F# B E G#  C#   
 
This is 100% correct.  
C#-----------------------------------------   
 G#-----------------------------------------    
E----------------------4-4-4-4/7-7-7-76-6-   
B------4-5-4---4-5-4-----------------------   X8   
 F#-------------------5---------------------    
 C#---0-------0-----------------------------    
 
C#---------------------------------------   
 G#-----8-------8--------11---------11----    
E----9---9---9---9---12----12---12----12-   
B----------------------------------------     X2   
 F#---------------------------------------    
 C#---------------------------------------    
 
C#-----------------------------------------   
 G#-----------------------------------------    
E----------------------4-4-4-4/7-7-7-76-6-   
B------4-5-4---4-5-4-----------------------   X4   
 F#-------------------5---------------------    
 C#---0-------0-----------------------------    
 
C#---------------------------------------------   
 G#-----8-------8--------11---------11/1311----    
E----9---9---9---9---12----12---12----------12-   
B----------------------------------------------   X4   
 F#---------------------------------------------    
 C#---------------------------------------------    
 
C#---------------------   
 G#---------------------        
E----------------------  
B----2-2-2-------3-3---   X12   
 F#---2-2---2-----3-3---    
 C#---0-0-----3-0-1-1---    
 
C#-----------------------------------------   
 G#-----------------------------------------    
E----------------------4-4-4-4/7-7-7-76-6-   
B------4-5-4---4-5-4-----------------------   X4   
 F#-------------------5---------------------    
 C#---0-------0-----------------------------    
 
C#---------------------------------------------   
 G#-----8-------8--------11---------11/1311----    
E----9---9---9---9---12----12---12----------12-   
B----------------------------------------------   X4   
 F#---------------------------------------------    
 C#---------------------------------------------    
 
C#---------------------   
 G#---------------------    
E----------------------   
B----2-2-2-------3-3---    X12   
 F#---2-2---2-----3-3---    
 C#---0-0-----3-0-1-1---    
 
C#---------------------   
 G#---------------------    
E----------------------   
B----3-3---3-3---3-3---   
 F#---3-3---3-3---3-3---    
 C#---1-1---1-1---1-1---    
 
C#------------------------------------------------   
 G#---------------------11-14-11-13-14-0-16-0------    The solo is not right ...   
E----12-12-13-12-13-12----------------------------   Cause Wes use 24 frets ...   
B-------------------------------------------------   But it sound good ...    
 F#------------------------------------------------    X8   
 C#------------------------------------------------    
 
C#---------------------------------   
 G#---------------------------------    
E--------------------4-4-4/7-76-6-   
B------6-64/6-6/76---------------   X4   
 F#---------------------------------    
 C#---0-----------------------------    
 
C#--------------------   
 G#--------------------   
E---------------------   
B----2-2-2------3-3---   X12   
 F#---2-2--2-----3-3---    
 C#---0-0----3-0-1-1---    
 
C#---------------------   
 G#---------------------    
E----------------------   
B----3-3---3-3---3-3---   
 F#---3-3---3-3---3-3---    
 C#---1-1---1-1---1-1---    
 
C#-----------------------------------------   
 G#-----------------------------------------    
E----------------------4-4-4-4/7-7-7-76-6-   
B------4-5-4---4-5-4-----------------------   X4   
 F#-------------------5---------------------    
 C#---0-------0-----------------------------      
 
less
plus
Add to Songbook Print Version How to play lesson Submit videolesson
Click the best TAGS for this song:
None of them
Contributor: janemjha Correct

If you can not find the chords or tabs you want, look at our partner E-chords. If you are a premium member, you have total access to our video lessons.

If you find a wrong Bad To Me from Limpbizkit, click the correct button above.

login/signup
my songbooks
my recent views
my submits