Limpbizkit

My Generation tab

Limpbizkit

tools Ultimate Tabs

Start AutoScroll Font Size Down Font Size Up

Find us on Facebook

chords
tabs
bass
ukulele
keyboards
drums
flute
harmonica
guitar pro
video
Ultimate-Tabs

My Generation

Intro------------------------------------------------------------- 
 
(Distortion) 
c# --------------------------------------------------------------I  
g# --------------------------------------------------------------I 
E  --------------------------------------------------------------Irepeat    
B  -2----2----6-5-5-0-5-0--2----2----5-0-0-5-0-5-I  X4 
F# -2----2----6-5-5-0-5-0--2----2----5-0-0-5-0-5-I 
c# -0-3-0-3-4-3-3-0-3-0--0-3-0-3-3-0-0-3-0-3-I  
          *    *                        *     * 
 
--------Intro to Verse (Do you know where you are)----- 
 
(Distortion) 
c# ----------------------------------I 
g# ----------------------------------I 
E  ----------------------------------I Repeat  X 2 
B  ----------------------------------I 
F# ----------------------------------I 
c# -0-0-4-5(6)-0-0-4-5(6)-0-0-4-I 
             *  @         *  @         * 
--------Verse (welcome to the jungle,Punk)------------------- 
(Distortion) 
c# ----------------------------------I 
g# ----------------------------------I 
E  ----------------------------------I Repeat X 8 
B  ----------------------------------I 
F# ----------------------------------I 
c# -0-0-4-5(6)-0-0-4-5(6)-0-0-4-I 
             *  @         *  @         *   
----------Chorus-------------------------------------------------------- 
 
(Distortion) 
c# -----------------------------------------------------------------------0 
g# -----------------------------------------------------------------------0 
E  -----------------------------------------------------------------------0 
B  -----------------------------------------------------------------------0 
F# -5-5-5------------5-5-5----------------5-5-5------------5-5-0 
c# -3-3-3-R-R-R-3-3-3-R-R-R-R-3-3-3-R-R-R-3-3-0 
 
 
--------Chorus-Low----------------------------------------- 
 
c# --------------------------------------------------------------I  
g# --------------------------------------------------------------I 
E  --------------------------------------------------------------I   
B  -2----2----6-5-5-0-5-0--2----2----5-0-0-5-0-5-I 
F# -2----2----6-5-5-0-5-0--2----2----5-0-0-5-0-5-I 
c# -0-3-0-3-4-3-3-0-3-0--0-3-0-3-3-0-0-3-0-3-I  
          *    *                        *     * 
 
---------Chorus-high----------------------- 
 
c# -------------------------------I  
g# -------------------------------I                                       
E  -------------------------------I     
B  -2----2----6-5-5-0-5-0-I                                             
F# -2----2----6-5-5-0-5-0-I 
c# -0-3-0-3-4-3-3-0-3-0-I 
 
          *    * 
 
Stop an rest /Start new verse after the first Chorus of the song 
For the second Chorus Rest (Until you give a fuck about me and my generation) then reapeat once more 
 
 
------------Breakdown---------------------------------------------- 
 
(Distortion)            
 
c# -----------------------                                        
g# ----------------------- 
E  -----------------------    
B  -6--6-5--5-44-4- 
F# -6--6-5--5-44-4- 
c# -4--4-3--3-22-2- 
 
---------Bridge------------------------------------------------------------ 
 
(Clean)          
c# -------------------------------------------------------------------------- 
g# -------------------------------------------------------------------------- 
E  -------------------------------------------------------------------------- 
B  -------------------------------------------------------------------------- 
F# ----7-5----5^7-5-------------------------------7-5----7^5-7--- 
c# -0-------0-----------0-3^5-3-0-1^3-1--0-------0-----------0 
 
 
------Continued bridge----------------------------------------------- 
 
F# --------------3- 
c# -3^5-3-0-1- 
Repeat the whole bridge 4 times then repeat it 4 times again with palm muting that gradually depresses each time you repeat it until finally on the last time through you play it clean again. 
 
When Fred yells FLY!!!  repeat the bridge 4 times with Distortion on 
-------------Outro--------------------------------------------- 
 
play the whole Chorus (Distortion) and finish off with 
 
 
c# --------------------------------------------------------------  
g# -------------------------------------------------------------- 
E  --------------------------------------------------------------    
B  -5------5----5--5------5----5-2------------------------ 
F# -5-00-5-0-5--5-00-5-0-5-2------------------------ 
c# -3-00-3-0-3--3-00-3-0-3-0-3--------------------- 
                                             * 
 
 
 
less
plus
Add to Songbook Print Version How to play lesson Submit videolesson
Click the best TAGS for this song:
None of them
Contributor: chicadid Correct

If you can not find the chords or tabs you want, look at our partner E-chords. If you are a premium member, you have total access to our video lessons.

If you find a wrong Bad To Me from Limpbizkit, click the correct button above.

login/signup
my songbooks
my recent views
my submits