tools Ultimate Tabs

Start AutoScroll Font Size Down Font Size Up

Find us on Facebook

chords
tabs bass ukulele keyboards drums
flute
harmonica
guitar pro
video
Ultimate-Tabs

My Way

 
Versão 1 
-======- 

Riff1 (Intro/Verse1) Clean dirty delay 
C#|--------------------|-------------|
G#|-----------5--------|-------------| 
E |--1--------0--------|--4----------| 
B |--2--------x--------|--5----------| 
F#|--2--------3--------|--5----------| 
C#|--0-----------------|--3----------| 
     E        C           G 
{Intro} 
 E   C   G 
(Check, check, check check... out my melody) 
 E   C   G 
(Check, check, check check... out my melody) 
 E   C   G 
(Check, check, check check... out my melody) 
{Verse1} (Riff1) 
 E         C        G 
 Special_               You think you're  
(Check, check, check check... out my melody) 
 E (bass/drum enters)   C            G 
 Special_         You__ do__   I can see it in your 
 E                      C            G 
 E___e___eyes                  I can see it when you 
 E                      C         G 
 Laugh_ at_ me__   Look down_ on_ me__   You walk 
 E                      C         G 
 a_round_ on_ me__ 
Riff2 (Verse2) Clean 
C#|--------1/5-5-5-3--3---------------------------| 
G#|--------------------------5-----5--------------| 
E |--------------------------------------4-----4--| 
B |---2-------------------5-----5-----5-----5-----| 
F#|---2---------------3---------------------------| 
C#|---0----------------------------3--------------| 
      E               C            G 
{Verse2} (Riff2) 
      E                 C           G 
Just_ one___     more__ fight__    About your 
E                    C           G 
Leadership_     And_ I__ will__  straight__ up_ 
E                          C          G 
Leave_ your_ shit_   Cause I've__     had_ 
  E                       C                G 
e_nough of this_      And now I'm pissed_     YEAH! 
Riff3 (Chorus - distortion, play e-string with pinky) 
|--4--4-4-4-4-4-4-4-4-4-4-4-4-4-4-|--5--5-5-5-5-5-5-7-7-7-7-7-7-7-7- 
|---------------------------------|--------------------------------- 
|---------------------------------|--------------------------------- 
|--2--2-2-2-2-2-2-2-2-2-2-2-2-2-2-|--5--5-5-5-5-5-5-5-5-5-5-5-5-5-5- 
|--2--2-2-2-2-2-2-2-2-2-2-2-2-2-2-|--5--5-5-5-5-5-5-5-5-5-5-5-5-5-5- 
|--0--0-0-0-0-0-0-0-0-0-0-0-0-0-0-|--3--3-3-3-3-3-3-3-3-3-3-3-3-3-3- 
   E5                                G5 
|--4--4-4-4-4-4-4-4-4-4-4-4-4-4-4-|--5--5-5-5-5-5-5-3-3-3-3-3-3-3-3- 
|---------------------------------|--------------------------------- 
|---------------------------------|--------------------------------- 
|--2--2-2-2-2-2-2-2-2-2-2-2-2-2-2-|--5--5-5-5-5-5-5-5-5-5-5-5-5-5-5- 
|--2--2-2-2-2-2-2-2-2-2-2-2-2-2-2-|--5--5-5-5-5-5-5-5-5-5-5-5-5-5-5- 
|--0--0-0-0-0-0-0-0-0-0-0-0-0-0-0-|--3--3-3-3-3-3-3-3-3-3-3-3-3-3-3- 
   E5                                G5 
{Chorus} 
E5                                       G                G   
This time_ I'm 'a let it all come out_   This time I'm 'a stand up and shout_ 
E5                             G              G  
I'm 'a do things my way   It's my_ way_   "My way, or the highway" 
E5                                       G                G   
This time_ I'm 'a let it all come out_   This time I'm 'a stand up and shout_ 
E5                             G              G  
I'm 'a do things my way   It's my_ way_   "My way, or the highway" 
E   C   G 
(Check out, check check... out my melody) 
E   C   G 
(Check out, check check... out my melody) 
E   C   G 
(Check, check, check check... out my melody) 
E   C   G 
(Check, check, check check... out my melody) 
{Verse3} (Riff2) 
      E                 C           G 
Just_ one___     more__ fight__    About 
        E                      C          G 
About a lot__ of things    And I__   will give up 
E                C         G 
everything_   To be__      on my 
E                C               G 
own_ again__     FREE AGAIN             YEAH! 
{Chorus} 
E5                                       G                G   
This time_ I'm 'a let it all come out_   This time I'm 'a stand up and shout_ 
E5                             G              G  
I'm 'a do things my way   It's my_ way_   "My way, or the highway" 
E5                                       G                G   
This time_ I'm 'a let it all come out_   This time I'm 'a stand up and shout_ 
E5                             G              G  
I'm 'a do things my way   It's my_ way_   "My way, or the highway" 
Riff4 (Bridge) 
|-------------------------------------------- 
|-------------------------------------------- 
|-------------------------------------------- 
|-2-2--x-x-x--2-2-x-x-x-5-5-x-x-5-5-5-5-5-5-- 
|-2-2--x-x-x--2-2-x-x-x-5-5-x-x-5-5-5-5-5-5-- 
|-0-0--x-x-x--0-0-x-x-x-3-3-x-x-0-3-0-3-0-3- 
  E5                    G5 
{Bridge} (Riff4) 
E5                   G5 
  Some_ day_ you'll_ see_ things_ my_ way__ 
E5                                         G5 
  Cause you never know__  Where, you never know__   Where you're gonna go__ 
E5                   G5 
  Some_ day_ you'll_ see_ things_ my_ way__ 
E5                                         G5 (hold) 
  Cause you never know__  Where, you never know__        Where you're gonna 
{Solo break} (Riff5 Solo) 
Bsus2   Gsus2   Dsus2   Asus2 
go____ 
Esus2   Csus2   gsus2   Dsus2  (bass enters) 
(check, check out, check... check out my melody) 
Bsus2   Gsus2   Dsus2   Asus2 
Esus2   Csus2   gsus2   Dsus2 
Riff5 (Solo) 
|--------------------------|---------------------------|----------------------------------| 
|--------------------------|---------------------------|----------------------------------| 
|--------6-----------------|--9-----------------11-----|------------------14--------------| 
|-----4-----------7-----7--|-----------9-----9---------|------12------12--------------14--| 
|--2-----------5-----5-----|--------7-----7------------|--10------10--------------12------| 
|-----------3--------------|-----5------------------8--|----------------------10----------| 
   Bsus2    Gsus2    Dsus2       Asus2    Esus2     Csus2         gsus2       Dsus2 
{Verse4} (Riff2) 
      E                 G                G   
Just_ one___     more__ fight__     And_ I'll_ be_ 
E                    G          G 
History__        Yes I__   will straight up_ 
E                        G             G   
Leave your shit__    And you'll__      be__ the__ 
E                    G             G 
one who's left__     Missing me__       YEAH! 
Riff6 (Verse4) 
|--4--------5--------|--7----------------|--4--------5--------|--3----------------| 
|--------------------|-------------------|--------------------|-------------------| 
|--------------------|-------------------|--------------------|-------------------| 
|--2--------5--------|--5----------------|--2--------5--------|--5----------------| 
|--2--------5--------|--5----------------|--2--------5--------|--5----------------| 
|--0--------3--------|--3----------------|--0--------3--------|--3----------------| 
   E        G           G                   E        G           G 
{Chorus} 
E5                                       G                G   
This time_ I'm 'a let it all come out_   This time I'm 'a stand up and shout_ 
E5                             G              G  
I'm 'a do things my way   It's my_ way_   "My way, or the highway" 
E5                                       G                G   
This time_ I'm 'a let it all come out_   This time I'm 'a stand up and shout_ 
E5                             G              G  
I'm 'a do things my way   It's my_ way_   "My way, or the highway" 
{Bridge} (Riff4) 
E5                   G5 
  Some_ day_ you'll_ see_ things_ my_ way__ 
E5                                         G5 
  Cause you never know__  Where, you never know__   Where you're gonna go__ 
E5                   G5 
  Some_ day_ you'll_ see_ things_ my_ way__ 
E5                                         G5 
  Cause you never know__  Where, you never know__  
{Outro} (guitar only, hi-hat) 
E       G    G   
(Check, check, check check... out my melody) 
E       G    G 
(Check, check, check check... out my melody) 
E       G    G   
(Check, check, check check... out my melody) 
E       G    G 
(Check, check, check check... out my melody) 
E       G    G   
(Check, check, check check... out my melody) 
E       G    G 
(Check, check, check check... out my melody__) 
Chords: 
 
_______________________________________________________ 
Contribuição: Valeria M. Santos([email protected] 
less
plus
Add to Songbook Print Version How to play lesson Submit videolesson
Click the best TAGS for this song:
None of them
Contributor: jmw6wesn Correct

If you can not find the chords or tabs you want, look at our partner E-chords. If you are a premium member, you have total access to our video lessons.

If you find a wrong Bad To Me from Limpbizkit, click the correct button above.

login/signup
my songbooks
my recent views
my submits