Limpbizkit

No Body Loves Me tab

Limpbizkit

tools Ultimate Tabs

Start AutoScroll Font Size Down Font Size Up

Find us on Facebook

chords
tabs
bass
ukulele
keyboards
drums
flute
harmonica
guitar pro
video
Ultimate-Tabs

No Body Loves Me

 
Tuning: Drop C - C G C F A D 
 
Intro 
D|------------------------------------------------| 
A|------------------------------------------------| 
F|------------------------------------------------| 
C|--5\4-4--4-5\4-4--4-1----5\4-4--4-5\4-4--4-1-1--| 
G|--5\4-4--4-5\4-4--4-1----5\4-4--4-5\4-4--4-1-1--| 
C|--5\4-4--4-5\4-4--4-1----5\4-4--4-5\4-4--4-1-1--| 
 
D|------------------------------------------------| 
A|------------------------------------------------| 
F|--8-x-8-x-8-x-8-7---8-x-8-x-8-x-8-7-------------| 
C|--8-x-8-x-8-x-8-7---8-x-8-x-8-x-8-7-------------| 
G|--6-x-6-x-6-x-6-5---6-x-6-x-6-x-6-5-------------| 
C|------------------------------------------------| 
 
Verse (palm mute) 
D|------------------------------------------------| 
A|------------------------------------------------| 
F|------------------------------------------------| 
C|--0-3-2-1-0-3-2-1-0-3-2-1-0-3-2-1---------------| 
G|--0-3-2-1-0-3-2-1-0-3-2-1-0-3-2-1---------------| 
C|--0-3-2-1-0-3-2-1-0-3-2-1-0-3-2-1---------------| 
 
Chorus 
D|------------------------------------------------| 
A|------------------------------------------------| 
F|--8-x-8-x-8-x-8-7---8-x-8-x-8-x-8-7-------------| 
C|--8-x-8-x-8-x-8-7---8-x-8-x-8-x-8-7-------------| 
G|--6-x-6-x-6-x-6-5---6-x-6-x-6-x-6-5-------------| 
C|------------------------------------------------| 
 
Bridge 
D|------------------------------------------------| 
A|------------------------------------------------| 
F|--x-x-x-x-x-x-x-x-8-8-8-8-8-8-9-8---------------| 
C|--x-x-x-x-x-x-x-x-8-8-8-8-8-8-9-8---------------| 
G|--x-x-x-x-x-x-x-x-6-6-6-6-6-6-7-6---------------| 
C|------------------------------------------------| 
 
D|------------------------------------------------| 
A|------------------------------------------------| 
F|--8----8------------8----8----------------------| 
C|--8----8------------8----8----------------------| 
G|--6----6------------6----6----------------------| 
C|------------------------------------------------| 
 
D|------------------------------------------------| 
A|------------------------------------------------| 
F|------------------------------------------------| 
C|--1-1-1-1-x---1-1-1-1-x-2-2-1-1-1-1-x-----------| 
G|--1-1-1-1-x---1-1-1-1-x-2-2-1-1-1-1-x-----------| 
C|--1-1-1-1-x---1-1-1-1-x-2-2-1-1-1-1-x-----------| 
 
 
_______________________________________________________ 
Contribuição: Big([email protected]) 
 
less
plus
Add to Songbook Print Version How to play lesson Submit videolesson
Click the best TAGS for this song:
None of them
Contributor: sammsefe Correct

If you can not find the chords or tabs you want, look at our partner E-chords. If you are a premium member, you have total access to our video lessons.

If you find a wrong Bad To Me from Limpbizkit, click the correct button above.

login/signup
my songbooks
my recent views
my submits