tools Ultimate Tabs

Start AutoScroll Font Size Down Font Size Up

Find us on Facebook

chords
tabs
bass
ukulele
keyboards
drums
flute
harmonica
guitar pro
video
Ultimate-Tabs

Rollin

 
Tabber: Derek Lau 
Tune: Drop  D  then 1/2 step down C# G# C# F# A# D#  from low to high 
 
key 
 - slide down 
 
Intro "throw your hands up" 
 
 D#|---------------------------------------------------------------  
 A#|---------------------------------------------------------------  
 F#|---------------------------------------------------------------  
 C#|---0---0---0---7---7---7---3---3---3---------------------------  
 G#|---------------------------------------------------------------  
 C#|---------------------------------------------------------------  
 
Heavy Intro/Chorus 
Also verse but palm muted 
 
 D#|---------------------------------------------------------------  
 A#|---------------------------------------------------------------  
 F#|---------------------------------------------------------------  
 C#|---0------7------5------3--5--3------12----12-------12------  
 G#|---0------7------5------3--5--3------12----12-------12------  
 C#|---0------7------5------3--5--3------12----12-------12------  
 
Other guitar in verse "now i know u be lovin this shit right here" 
I think Wes uses delay 
 
 
 D#|---------------------------------------------------------------  
 A#|---------------------------------------------------------------  
 F#|----14---------------------------------------------------------  
 C#|----15--------15-----------------------------------------------  
 G#|--------------17-----------------------------------------------  
 C#|---------------------------------------------------------------  
 
Bridge "hey fellas, hey ladies, and the people who don't give a  
Fuck!" 
 
 D#|---------------------------------------------------------------  
 A#|---------------------------------------------------------------  
 F#|---------------------------------------------------------------  
 C#|------12--------12-------------------------------------------  
 G#|------12--------12-------------------------------------------  
 C#|------12--------12-------------------------------------------  
 
email me at [email protected] 
 
less
plus
Add to Songbook Print Version How to play lesson Submit videolesson
Click the best TAGS for this song:
None of them
Contributor: andyOrli Correct

If you can not find the chords or tabs you want, look at our partner E-chords. If you are a premium member, you have total access to our video lessons.

If you find a wrong Bad To Me from Limpbizkit, click the correct button above.

login/signup
my songbooks
my recent views
my submits