S Linkin Park

Crawling bass

Linkin Park

Album:Live in Texas CD + DVD

Year:2003

tools Ultimate Tabs

Start AutoScroll Font Size Down Font Size Up

Find us on Facebook

Ultimate-Tabs

Crawling

Intro
G|-----------------------------|
D|-----------------------------|
A|------7-------7--------------|
E|--5-------7-------9---7---0--|

Chorus 
G|-------------------------------------------|
D|-------------------------------------------|
A|-------------------------------------------|
E|--4----5----0----7-4--/9----5----0----7-4--|	x2

Verse
G|-------------------------------------------|
D|-------------------------------------------|
A|-------------------------------------------|
E|--/9----5----0----7-4—/9----5----0----7-4--|

Pre Chorus
G|------------------------------------------------------------|
D|------------------------------------------------------------|
A|------7-------7-----------------7-------7-------------------|
E|--5-------7-------9--7---4--5-------7-------9--7---4---0h4--|

Chorus 
G|-------------------------------------------|
D|-------------------------------------------|
A|-------------------------------------------|
E|--4----5----0----7-4--/9----5----0----7-4--|	x2

Verse
G|-------------------------------------------|
D|-------------------------------------------|
A|-------------------------------------------|
E|--/9----5----0----7-4—/9----5----0----7-4--|

Pre Chorus
G|------------------------------------------------------------|
D|------------------------------------------------------------|
A|------7-------7-----------------7-------7-------------------|
E|--5-------7-------9--7---4--5-------7-------9--7---4---0h4--|

Chorus 
G|-------------------------------------------------------------------
D|-------------------------------------------------------------------
A|-------------------------------------------------------------------
E|-4----5----0----7-4-/9----5----0----7-4---4-11-9---4---5---0----7-4

G|-------------------------------------------------------------------------|
D|-------------------------------------------------------------------------|
A|-------------------------------------------------------------------------|
E|-4----5----0----7-4--/9----5----0----7-4---4-11-9---4---5---0---777777-4-|

_______________________________________________________
Contribuição: Gabriel Fernandes do Nascimento([email protected]) 
less
plus
Add to Songbook Print Version How to play lesson Submit videolesson
Click the best TAGS for this song:
None of them
Contributor: 15981597 Correct

If you can not find the chords or tabs you want, look at our partner E-chords. If you are a premium member, you have total access to our video lessons.

If you find a wrong Bad To Me from Linkin Park, click the correct button above.

login/signup
my songbooks
my recent views
my submits