S Linkin Park

Crawling tab

Linkin Park

Album:Hybrid Theory

Year:2000

tools Ultimate Tabs

Start AutoScroll Font Size Down Font Size Up

Find us on Facebook

Ultimate-Tabs

Crawling

afinação:eb
Intro: (4x)

eb||----8----------------
Bb||------10-8-----------
f#||--7--------10-9-10--7

refrão
Mike

|---------------------|
|---------------------|
|-7-------------------|
|-7---8---3---10---7--|
|-5---8---3---10---7--|
|-----6---1---8----5--|

Brad

|-----------------------|
|-----------------------|
|-11---5---10---9---12--|
|--x---x----x---x----x--|
|--9---3----8---7---10--|
|-----------------------|

facim neh
mais eu num vo bota a letra pra fik mais comprdo a folha

Mas eu boto, he, he, he!!!
Letra:

Crawling in my skin 
Consuming all I feel 
Fear is how I fall 
Confusing what is real 
There's something inside me that pulls beneath the surface 
Consuming/Confusing 
This lack of self-control I fear is never-ending 
Controlling/I can't seem 
To find myself again 
My walls are closing in 
(Without a sense of confidence and IÕm convinced 
That thereÕs just too much pressure to take) 
I've felt this way before 
So insecure 
Discomfort, endlessly has pulled itself upon me 
Distracting/Reacting 
Against my will I stand beside my own reflection 
It's haunting how I can't seem...  
less
plus
Add to Songbook Print Version How to play lesson Submit videolesson
Click the best TAGS for this song:
None of them
Contributor: jamecray Correct

If you can not find the chords or tabs you want, look at our partner E-chords. If you are a premium member, you have total access to our video lessons.

If you find a wrong Bad To Me from Linkin Park, click the correct button above.

login/signup
my songbooks
my recent views
my submits