Linkin Park

Easier to run bass

Linkin Park

Album:Meteora

Year:2003

tools Ultimate Tabs

Start AutoScroll Font Size Down Font Size Up

Find us on Facebook

Ultimate-Tabs

Easier to run

Easier To Run 
 
Esta é uma versão para Baixo de 4 cordas, já que nessa música o baixista usa um de 5 cordas.

Intro & Pre Chorus
G :-------------------------
D :-------1------------1----
A :-1*-1-----2----2-4-----1-
C#:-------------------------
(play what is before the star just the 1st time)

Chorus
G :-----------------------------------------------------
D :-----------------------------------------------------
A :--------------2-2-2---------------------1-1-1--------
C#:-2-2-2---------------------0-0-0---------------------

Verses
G :---------------------------|X4
D :----8--9----9-8------------|X4
A :-6---------------9--8----9-|X4
C#:---------------------------|X4

Bridge
G :------------------------------------------------------
D :------------------------------------------------------
A :-2-2-2----------------------------------1-1-1---------
C#:--------------0-0-0--------2-2-2----------------------

G :------------------------------------------------------
D :------------------------------------------------------
A :-2-2-2------------------------------------------------
C#:--------------0-0-0--------0-12-0-----0/12-12-12------

Last Chorus
G :---------------------------------------------------|X4|-----------------------
D :---------------------------------------------------|X4|-----------------------
A :------------2-2-2---------------------1-1-1--------|X4|-8-8-8--------13-13-13-
C#:-2-2-2-------------------0-0-0---------------------|X4|----------------------- 
less
plus
Add to Songbook Print Version How to play lesson Submit videolesson
Click the best TAGS for this song:
None of them
Contributor: the_shus Correct

If you can not find the chords or tabs you want, look at our partner E-chords. If you are a premium member, you have total access to our video lessons.

If you find a wrong Bad To Me from Linkin Park, click the correct button above.

login/signup
my songbooks
my recent views
my submits