Linkin Park

Forgotten bass

Linkin Park

Album:Hybrid Theory

Year:2000

tools Ultimate Tabs

Start AutoScroll Font Size Down Font Size Up

Find us on Facebook

Ultimate-Tabs

Forgotten

Forgotten 
 
Tunning: B,E,A,D,G (5-string)


Intro/Pre-chorus:
A)
G|----------------|
D|----------------|
A|----------------|
E|----------------|
B|-5-4-4-4-55-4-4-|

B)
G|--------------------|
D|--------------------|
A|--------------------|
E|------------------2-|
B|-5-4-4-4--5-5-4-6---|

Verse:
G|-------------------------|
D|---------------------4---|
A|-----6--7-6--2-2---------|
E|-4-4-------------4-2---2-|
B|-------------------------|

Chorus:
G|--------------------|
D|--------------------|
A|----6/7-2-2-1h2-2-1-|
E|-4------------------|
B|--------------------|

Interlude: part B only comes in 
right b/4 the chorus the last time.
A)
G|---------------------|
D|---------------------|
A|---------------------|
E|-4-4-2-4-------------|
B|---------5-555-44-55-|

B)
G|------------------|
D|------------------|
A|------------------|
E|---7--7--------7--|
B|-5---5--4444-55-5-|

ORDER:
Intro
Verse
Pre-Chorus
Chorus
Verse
Pre-Chorus
Chorus
Interlude
Chorus 
less
plus
Add to Songbook Print Version How to play lesson Submit videolesson
Click the best TAGS for this song:
None of them
Contributor: midnnek! Correct

If you can not find the chords or tabs you want, look at our partner E-chords. If you are a premium member, you have total access to our video lessons.

If you find a wrong Bad To Me from Linkin Park, click the correct button above.

login/signup
my songbooks
my recent views
my submits