tools Ultimate Tabs

Start AutoScroll Font Size Down Font Size Up

Find us on Facebook

Ultimate-Tabs

From the Inside

 From The Inside 
 
Turn your E string into a C#

Intro & 1st Chorus
G :-------------------------------------------------|X2
D :-------------------------------------------------|X2
A :-------------------------00-0-000-0-0------------|X2
C#:-00-0-000-0-033-3-333-3-3------------55-5-57-7-7-|X2

Verses
G :-------------------------------------------------|X4
D :-------------------------------------------------|X4
A :-------------22-2-22-2-2-00-0-00-0-0-------------|X4
C#:-00-0-00-0-0-------------------------55-5-57-----|X4

2nd Chorus
G :-------------------------------------------------
D :-------------------------------------------------
A :-------------------------00-0-000-0-0------------
C#:-00-0-000-0-033-3-333-3-3------------55-5-57-7-7-

G :-------------------------------------------------
D :-------------------------------------------------
A :-------------------------00-0-000-0-0------------
C#:-00-0-000-0-033-3-333-3-3------------77-7-77-7-7-

Bridge
G :-------------------------------------------
D :-------------------------------------------
A :-------------------------------------------
C#:-00-0-0-----00-0-0-----00-0-0-----11-1-1---

G :-----------------------------------------------------|X2
D :-----------------------------------------------------|X2
A :-----------------------------------------------------|X2
C#:-00-0-0---0-1-00-0-0---0-1-00-0-0---0-1-11-1-111-1-1-|X2

Last Chorus
G :-------------------------------------------------
D :-------------------------------------------------
A :-------------------------00-0-000-0-0------------
C#:-------------------------------------55-5-57-7-7-

G :-------------------------------------------------
D :-------------------------------------------------
A :-------------------------00-0-000-0-0------------
C#:-00-0-000-0-033-3-333-3-3------------55-5-57-7-7-

G :-----------------------------------------------------
D :-----------------------------------------------------
A :-----------------------------00-0-000-0-0------------
C#:-00-0-0/12-----33-3-3/15-----------------55-5-57-7-7-

G :-----------------------------------------------------
D :-----------------------------------------------------
A :-----------------------------00-0-000-0-0------------
C#:-00-0-0/12-----33-3-3/15-----------------77-7-77-7-7-

G :-------------------------------------------
D :-------------------------------------------
A :-------------------------------------------
C#:-00-0-0-----00-0-0-----00-0-0-------------- 
less
plus
Add to Songbook Print Version How to play lesson Submit videolesson
Click the best TAGS for this song:
None of them
Contributor: bro_plec Correct

If you can not find the chords or tabs you want, look at our partner E-chords. If you are a premium member, you have total access to our video lessons.

If you find a wrong Bad To Me from Linkin Park, click the correct button above.

login/signup
my songbooks
my recent views
my submits