Linkin Park

Given Up bass

Linkin Park

Album:Minutes to Midnight

Year:2007

tools Ultimate Tabs

Start AutoScroll Font Size Down Font Size Up

Find us on Facebook

Ultimate-Tabs

Given Up

Linkin Park

Given Up

5-string Bass

Intro 4 without Bass
G ----------------|
D ----------------|
A ----------------|  x3
E ----------------|
B 5--55-55-555-556|

G ----------------|
D ----------------|
A ----------------|
E -----------7----|
B 5--55-55-55--557|

Vers
G ----------------|
D ----------------|
A ----------------|
E ----------------|
B 5--55-55-555-556|

G ----------------|
D ----------------|
A ----------------|
E ----------------|
B 5--55-55-555-555|

G ----------------|
D ----------------|
A ----------------|
E ----------------|
B 3--33-33-333-336|

G ----------------|
D ----------------|
A ----------------|
E -----------7----|
B 5--55-55-55--557|   everything x2

G ------------------|
D ------------------|
A ------------------|
E 5-5-5-5-5-5-5-5-5-|
B ------------------|

Refrain
G --------------------------------|
D --------------------------------|
A --------------------------------| x3
E ------------------------5-55-55-|
B 5-55-55-7-77-77-3-33-33---------|

G ------------------------------------------------|
D ------------------------------------------------|
A ------------------------------------------------|
E --------------------------------5-55-55-xx7-----|
B 5-55-55-7-77-77-3-33-33-3-33-33-------------xx7-|

Vers

Refrain

Bridge
G ----------------------------------|
D ----------------------------------|
A ----------------------------------| 
E ----------------------------------|
B 5-6-7-6-9-8-7-12-11-10-8-10-7-8---|

G ------------------------------------|
D ------------------------------------|
A ------------------------------------| 
E ------------------------------------|
B 5-6-7-6-9-8-7-12-11-10-8-10-7-9-8-7-|  everything x2

G -----------------------------------------------------------|
D -----------------------------------------------------------|
A -----------------------------------------------------------|
E -----------------------------------------------------------|
B 5-6-7-6-9-8-7-12-11-10-8-10-10-9-8-10-11-10-8-10-10-9-8-10-|

4 without Bass
G ----------------|
D ----------------|
A ----------------|  x3
E ----------------|
B 5--55-55-555-556|

Refrain 

"Outro"
G --|
D --|
A --|
E --|
B 5-|
less
plus
Add to Songbook Print Version How to play lesson Submit videolesson
Click the best TAGS for this song:
None of them
Contributor: godidart Correct

If you can not find the chords or tabs you want, look at our partner E-chords. If you are a premium member, you have total access to our video lessons.

If you find a wrong Bad To Me from Linkin Park, click the correct button above.

login/signup
my songbooks
my recent views
my submits