Linkin Park

Hit the floor bass

Linkin Park

Album:Meteora

Year:2003

tools Ultimate Tabs

Start AutoScroll Font Size Down Font Size Up

Find us on Facebook

chords
tabs
bass
ukulele
keyboards
drums
flute
harmonica
guitar pro video
Ultimate-Tabs

Hit the floor

Turn your E string into a C#

Intro (begin at 0:08)
G :--------------------|X2|-----------------------------|X3|--------------------
D :--------------------|X2|-----------------------------|X3|--------------------
A :--------------------|X2|-----------------------------|X3|--------------------
C#:-0-4-0-1---1-1-0----|X2|-0-4-0-1---1-1-0---0-8-8-8-7-|X3|-0-4-0-1---1-1-0----

No bass in the 1st part of the 1st verse

2nd part of the 1st verse (begin at 0:40)
G :--------------------|X4|
D :--------------------|X4|
A :--------------------|X4|
C#:-0-4-0-1---1-1-0----|X4|

Chorus
G :-----------------------------|X4|
D :-----------------------------|X4|
A :-----------------------------|X4|
C#:-0-4-0-1---1-1-0---0-8-8-8-7-|X4|

2nd Verse (listen to the song to play with rythm)
G :------|X8|-----------------------|X4|
D :------|X8|-----------------------|X4|
A :------|X8|-----------------------|X4|
C#:-0--0-|X8|---0-4-0-1---1-1-0--0--|X4|

Bridge
G :----------------------------------|X2|
D :----------------------------------|X2|
A :----------------------------------|X2|
C#:-0--0--0--3-3~------0--0--0--1-1~-|X2|

No Bass in the part before the last chorus

Last Chorus
G :-----------------------------|X4|----------------------------------|X2|
D :-----------------------------|X4|----------------------------------|X2|
A :-----------------------------|X4|----------------------------------|X2|
C#:-0-4-0-1---1-1-0---0-8-8-8-7-|X4|-0--0--0--3-3~------0--0--0--1-1~-|X2|

Outro
G :-------------------------------------------------
D :-------------------------------------------------
A :-------------------------------------------------
C#:-0-4-0-1---1-1-0---0-8-8-8-7---0-4-0-1---1-1-0--- 
less
plus
Add to Songbook Print Version How to play lesson Submit videolesson
Click the best TAGS for this song:
None of them
Contributor: robeyell Correct

If you can not find the chords or tabs you want, look at our partner E-chords. If you are a premium member, you have total access to our video lessons.

If you find a wrong Bad To Me from Linkin Park, click the correct button above.

login/signup
my songbooks
my recent views
my submits