Linkin Park

In Between tab

Linkin Park

Album:Minutes to Midnight

Year:2007

tools Ultimate Tabs

Start AutoScroll Font Size Down Font Size Up

Find us on Facebook

chords
tabs
bass ukulele keyboards
drums
flute
harmonica
guitar pro video
Ultimate-Tabs

In Between

Drop D tuning

These are the licks played in the verses:

e|----------------------|
B|----------------------|
G|----------------------|
D|----------------------|
A|----------------------|
D|---8--11--6-----------|



e|-----------------------------------|
B|-----------------------------------|
G|-----------------------------------|
D|-----------------------------------|
A|-----------------------------------|
D|--8-11-6-5-4-1---8-6-4--6--8--9----|




Chorus:

lead

e|---13--9-----11---13--9-----11---|
B|----------9--------------9-------|
G|---------------------------------|
D|---------------------------------|
A|---------------------------------|
D|---------------------------------|



Rhythm

e|-------------------------------------------------|
B|-------------------------------------------------|
G|-------------------------------------------------|
D|-------------------------------------------------|
A|-------------------------------------------------|
D|--11-13--8--4--11-13-8-4---11-13--8-6-4-6-8------|


Bridge:

repeat x2
e|-------------------------|
B|--5-----7-----2----------|
G|--5-----8-----3----------|
D|--5-----8-----3----------|
A|--2-----6-----1----------|
D|-------------------------|


e|-------------------------|
B|--5-----7----------------|
G|--5-----8----------------|
D|--5-----8-----6----------|
A|--2-----6-----6----------|
D|--------------6----------|



play this lick over B,D#m,G#5  

e|--14-13--11---------14--13--11---------|
B|------------11------------------11-----|
G|---------------------------------------|
D|---------------------------------------|
A|---------------------------------------|
D|---------------------------------------|


play this lick over Bbm  

e|----13--9-----11-------------|
B|-----------9-----------------|
G|-----------------------------|
D|-----------------------------|
A|-----------------------------|
D|-----------------------------|








less
plus
Add to Songbook Print Version How to play lesson Submit videolesson
Click the best TAGS for this song:
None of them
Contributor: musipobr Correct

If you can not find the chords or tabs you want, look at our partner E-chords. If you are a premium member, you have total access to our video lessons.

If you find a wrong Bad To Me from Linkin Park, click the correct button above.

login/signup
my songbooks
my recent views
my submits