Linkin Park

In My Remains bass

Linkin Park

Album:Living Things

Year:2012

tools Ultimate Tabs

Start AutoScroll Font Size Down Font Size Up

Find us on Facebook

chords tabs
bass
ukulele keyboards
drums
flute
harmonica
guitar pro video
Ultimate-Tabs

In My Remains

credit to songsterr for the sheet tabs

Intro - nothing for first 5 bars - X2
G|----------------|----------------|-----------------------|----------------|
D|----------------|----------------|-----------------------|----------------|
A|----------------|----------------|-----------------------|----------------|
D|3-3-3-3-3-3-5-5-|7-7-7-7-7-7-9-9-|-10-10-10-10-10-10-7-7-|-5-5-5-5-5-5-5-5|

Verse - Nothing

Chorus - X2
G|----------------|----------------|-----------------------|----------------|
D|----------------|----------------|-----------------------|----------------|
A|----------------|----------------|-----------------------|----------------|
D|3-3-3-3-3-3-5-5-|7-7-7-7-7-7-9-9-|-10-10-10-10-10-10-7-7-|-5-5-5-5-5-5-5-5|

Verse - Nothing

Chorus - X2
G|----------------|----------------|-----------------------|----------------|
D|----------------|----------------|-----------------------|----------------|
A|----------------|----------------|-----------------------|----------------|
D|3-3-3-3-3-3-5-5-|7-7-7-7-7-7-9-9-|-10-10-10-10-10-10-7-7-|-5-5-5-5-5-5-5-5|

Break/Interlude - Nothing

Chorus - X2 (stop after second bar second time)
G|----------------|----------------|-----------------------|----------------|
D|----------------|----------------|-----------------------|----------------|
A|----------------|----------------|-----------------------|----------------|
D|3-3-3-3-3-3-5-5-|7-7-7-7-7-7-9-9-|-10-10-10-10-10-10-7-7-|-5-5-5-5-5-5-5-5|

Small Break

Chorus - X2
G|----------------|----------------|-----------------------|----------------|
D|----------------|----------------|-----------------------|----------------|
A|----------------|----------------|-----------------------|----------------|
D|3-3-3-3-3-3-5-5-|7-7-7-7-7-7-9-9-|-10-10-10-10-10-10-7-7-|-5-5-5-5-5-5-5-5|
less
plus
Add to Songbook Print Version How to play lesson Submit videolesson
Click the best TAGS for this song:
None of them
Contributor: danaLora Correct

If you can not find the chords or tabs you want, look at our partner E-chords. If you are a premium member, you have total access to our video lessons.

If you find a wrong Bad To Me from Linkin Park, click the correct button above.

login/signup
my songbooks
my recent views
my submits