Linkin Park

Mark The Graves bass

Linkin Park

tools Ultimate Tabs

Start AutoScroll Font Size Down Font Size Up

Find us on Facebook

chords
tabs
bass
ukulele
keyboards
drums
flute
harmonica
guitar pro
video
Ultimate-Tabs

Mark The Graves

Mark The Graves - Tab

Tuning: Dropped D

Note: No bass until 0:12.

Intro: Part I (0:12-0:25)
0:12-0:18
G|------------------------------------------------------------|
D|-2-2-2-2-2----2-2-2-2-2----2-2-2-2-2----2-2-2-2-2-----------|
A|------------------------------------------------------------|
D|------------------------------------------------------------|

0:19-0:25
G|------------------------------------------------------------|
D|-3-3-3-3-3-3-3-3-3-3-3-3-3-3-3-3----------------------------|
A|------------------------------------------------------------|
D|------------------------------------------------------------|

G|------------------------------------------------------------|
D|------------------------------------------------------------|
A|------------------------------------------------------------|
D|-3-3-3-3-3-3-3-3-3-3-3-3-3-3-3-3----------------------------|

Short Silence from 0:26-0:27
______________________________________________________________

Intro: Part II (0:28-0:56)
0:28-0:41
G|------------------------------------------------------------|
D|------------------------------------------------------------|
A|------------------------------------------------------------|
D|-2-3-0-2----2-3-0-2----2-3-0-2----2-3-0-2----2-3-0-2--------|

G|------------------------------------------------------------|
D|------------------------------------------------------------|
A|------------------------------------------------------------|
D|-2-5-3-2----2-3-0-2----2-5-3-2------------------------------|

0:41-0:56
Guitar I
x2
G|------------------------------------------------------------|
D|------------------------------------------------------------|
A|------------------------------------------------------------|
D|-7~----------5~----------0~----------2~---------------------|

Short Silence from 0:57-0:59
______________________________________________________________

Intro: Part III (1:00-1:14)
x3
G|------------------------------------------------------------|
D|------------------------------------------------------------|
A|------------------------------------------------------------|
D|-3-2-0-3-2--3-2-0-5-7---------------------------------------|

x1
G|------------------------------------------------------------|
D|------------------------------------------------------------|
A|------------------------------------------------------------|
D|-3-2-0-3-2-0-3-2-0-3-2-0-2----------------------------------|


Verse I (1:14-1:55)
No Bass

Verse I/II Interlude (1:56-2:10)
G|------------------------------------------------------------|
D|------------------------------------------------------------|
A|---------------------------2-2-2-2-0-0-0-0------------------|
D|-6-7-6-4-2-0-0-0-0-0-0-0-0-----------------2-2-2-2-2-2-2-2--|

G|------------------------------------------------------------|
D|------------------------------------------------------------|
A|------------------------------------------------------------|
D|-2-2-2------------------------------------------------------|

G|------------------------------------------------------------|
D|------------------------------------------------------------|
A|---------------------------2-2-2-2-0-0-0-0------------------|
D|-6-7-6-4-2-0-0-0-0-0-0-0-0-----------------2-2-2-2-2-2-2-2--|

G|------------------------------------------------------------|
D|------------------------------------------------------------|
A|------------------------------------------------------------|
D|-2-2-2-2-2-2-2-2--------------------------------------------|

Verse II (2:11-2:37)
2:25-2:37
G|------------------------------------------------------------|
D|------------------------------------------------------------|
A|-----------------2--0------------------------2--0-----------|
D|-6-7-6-4-2-0~----------2~----6-7-6-4-2-0~----------2~-------|

Chorus (2:38-3:07)
x3
G|------------------------------------------------------------|
D|------------------------------------------------------------|
A|---------------------------2-2-2-2-0-0-0-0------------------|
D|-6-7-6-4-2-0-0-0-0-0-0-0-0-----------------2-2-2-2-2-2-2-2--|

G|------------------------------------------------------------|
D|------------------------------------------------------------|
A|------------------------------------------------------------|
D|-2-2-2------------------------------------------------------|

x1
G|------------------------------------------------------------|
D|------------------------------------------------------------|
A|---------------------------2-2-2-2-0-0-0-0------------------|
D|-6-7-6-4-2-0-0-0-0-0-0-0-0-----------------2-2-2-2-2-2-2-2--|

G|------------------------------------------------------------|
D|------------------------------------------------------------|
A|------------------------------------------------------------|
D|-2-2-2-6-7-6-4-2--------------------------------------------|

Solo/Interlude (3:04-3:55)
3:08-3:22
G|------------------------------------------------------------|
D|------------------------------------------------------------|
A|------------------------------------------------------------|
D|-7-6-4-0--0---7-6-4-0--0---7-6-4-2--2---7-6-4-2--2----------|

G|------------------------------------------------------------|
D|------------------------------------------------------------|
A|------------------------------------------------------------|
D|-7-6-4-0--0---7-6-4-0--0---7-6-4-7-6-4-7-6-4-7-6-4----------|

3:29-3:35
x4 (Palm mute after each repeat)
G|------------------------------------------------------------|
D|------------------------------------------------------------|
A|------------------------------------------------------------|
D|-2-2-2-2-2--------------------------------------------------|

x2 (Palm mute after each repeat)
G|------------------------------------------------------------|
D|------------------------------------------------------------|
A|------------------------------------------------------------|
D|-3-3-3-3-3--------------------------------------------------|

3:36-3:42
x1
G|------------------------------------------------------------|
D|------------------------------------------------------------|
A|------------------------------------------------------------|
D|-3-3-3-3-3-3-3-3-3-3-3-3-3-3-3-3----------------------------|

Short silence right at 3:43

3:44-3:55
x2
G|------------------------------------------------------------|
D|------------------------------------------------------------|
A|------------------------------------------------------------|
D|-3-2-0-3-2--3-2-0-5-7---------------------------------------|

x1
G|------------------------------------------------------------|
D|------------------------------------------------------------|
A|------------------------------------------------------------|
D|-3-2-0-3-2-0-3-2-0-3-2-0-2----------------------------------|

Chorus (3:56-4:22)
4:08-4:22
G|------------------------------------------------------------|
D|------------------------------------------------------------|
A|---------------------------2-2-2-2-0-0-0-0------------------|
D|-6-7-6-4-2-0-0-0-0-0-0-0-0-----------------2-2-2-2-2-2-2-2--|

G|------------------------------------------------------------|
D|------------------------------------------------------------|
A|------------------------------------------------------------|
D|-2-2-2------------------------------------------------------|

G|------------------------------------------------------------|
D|------------------------------------------------------------|
A|---------------------------2-2-2-2-0-0-0-0------------------|
D|-6-7-6-4-2-0-0-0-0-0-0-0-0-----------------2-2-2-2-2-2-2-2--|

G|------------------------------------------------------------|
D|------------------------------------------------------------|
A|------------------------------------------------------------|
D|-2-2-2-2-2-2-2-2--------------------------------------------|

Outro (4:23-4:44
G|------------------------------------------------------------|
D|------------------------------------------------------------|
A|------------------------------------------------------------|
D|-7-6-4-0--0---7-6-4-0--0---7-6-4-2--2---7-6-4-2--2----------|

G|------------------------------------------------------------|
D|------------------------------------------------------------|
A|------------------------------------------------------------|
D|-7-6-4-0--0---7-6-4-0--0---7-6-4-7-6-4-7-6-4-7-6-4----------|

G|------------------------------------------------------------|
D|------------------------------------------------------------|
A|------------------------------------------------------------|
D|-3-5-3-2-0--0-0--3-5-3-2-0--0-0-----------------------------|

G|------------------------------------------------------------|
D|------------------------------------------------------------|
A|------------------------------------------------------------|
D|-3-5-3-0-2--2-2--3-5-3-0-2--2-2-----------------------------|

If there's any confusion, questions, or advice on how to 
improve it, please post a comment. Have fun playing, and 
please rate! -Rarrlow
less
plus
Add to Songbook Print Version How to play lesson Submit videolesson
Click the best TAGS for this song:
None of them
Contributor: spunMECO Correct

If you can not find the chords or tabs you want, look at our partner E-chords. If you are a premium member, you have total access to our video lessons.

If you find a wrong Bad To Me from Linkin Park, click the correct button above.

login/signup
my songbooks
my recent views
my submits