Linkin Park

Numb ( tablatura) tab

Linkin Park

tools Ultimate Tabs

Start AutoScroll Font Size Down Font Size Up

Find us on Facebook

chords
tabs
bass
ukulele
keyboards
drums
flute
harmonica
guitar pro
video
Ultimate-Tabs

Numb ( tablatura)

E--------------------------------------- 
B--------------------------------------- 
G--------------------------------------- 
D--------------------------------------- 
A-4-7-4------------------------------ 
E----  4-7-6----------------------------- 
 
E--------------------------------------- 
B--------------------------------------- 
G--------------------------------------- 
D--------------------------------------- 
A-4-7-4--------7------------------------ 
E-------4/7--6-------------------------- 
 
E--------------------------------------- 
B--------------------------------------- 
G--------------------------------------- 
D--------------------------------------- 
A-4-7-4--------------------------------- 
E------4-------------------------------- 
 
 
Essa  a intro da musica 
ORDEM:1-2-1-2-3 tablatura 
 
 
less
plus
Add to Songbook Print Version How to play lesson Submit videolesson
Click the best TAGS for this song:
None of them
Contributor: Chlojurg Correct

If you can not find the chords or tabs you want, look at our partner E-chords. If you are a premium member, you have total access to our video lessons.

If you find a wrong Bad To Me from Linkin Park, click the correct button above.

login/signup
my songbooks
my recent views
my submits