Linkin Park

Numb (ver. 2) tab

Linkin Park

tools Ultimate Tabs

Start AutoScroll Font Size Down Font Size Up

Find us on Facebook

chords
tabs
bass
ukulele keyboards drums
flute
harmonica
guitar pro
video
Ultimate-Tabs

Numb (ver. 2)

|------------2--5--4-------------5--4------------------2---| 
|---2--5--2------------2--5--2---------5-5---2--5--2---| 
|--------------------------------------------------------------| 
|--------------------------------------------------------------| 
|--------------------------------------------------------------| 
|--------------------------------------------------------------|  
 
|-2---2---2---2--2--2-2-2-2---2---2---2--2--2-2-2-0---0---0---0--0-0-0-0-0---0---0---0-0--0-0-0| 
|-2---2---2---2--2--2-2-2-3---3---3---3--3--3-3-3-2---2---2---2--2-2-2-2-0---0---0---0-0--0-0-0| 
|-2---2---2---2--2--2-2-2-2---2---2---2--2--2-2-2-2---2---2---2--2-2-2-2-1---1---1---1-1--1-1-1|         (Fica repetindo isso) 
|-4---4---4---4--4--4-4-0-0---0---0---0--0--0-0-0-2---2---2---2--2-2-2-2-2---2---2---2-2--2-2-2| 
|-4---4---4---4--4--4-4-0-0---0---0---0--0--0-0-0-0---0---0---0--0-0-0-0-2---2---2---2-2--2-2-2| 
|-2---2---2---2--2--2-2-0-0---0---0---0--0--0-0-0-0---0---0---0--0-0-0-0-0---0---0---0-0--0-0-0| 
             F                            D                                      A                    E  
 
  
 
Batida: 
1--2--3--4-1-2-3-4-(muda d acorde) 
vc faz as batidas 4 vezes, depois faša novamente soh q + rapido 
 
Tablatura by Mr.Hankey  
less
plus
Add to Songbook Print Version How to play lesson Submit videolesson
Click the best TAGS for this song:
None of them
Contributor: Romasupu Correct

If you can not find the chords or tabs you want, look at our partner E-chords. If you are a premium member, you have total access to our video lessons.

If you find a wrong Bad To Me from Linkin Park, click the correct button above.

login/signup
my songbooks
my recent views
my submits