S Linkin Park

Numb tab

Linkin Park

Album:Meteora

Year:2003

tools Ultimate Tabs

Start AutoScroll Font Size Down Font Size Up

Find us on Facebook

Ultimate-Tabs

Numb

Guitar (Brad Delson)

D#||------|------|------|------|-------------------|-------------------|
A#||------|------|------|------|-------------------|-------------------|
F#||------|------|------|------|-------------------|-------------------|
C#||------|------|------|------|-------------------|--5----------------|
G#||------|------|------|------|--5----------------|--5----------------|
C#||------|------|------|------|-------------------|--5----------------|


-------------------|-------------------|-------------------|------------------|
-------------------|-------------------|-------------------|------------------|
-------------------|-------------------|-------------------|------------------|
--1----------------|--8----------------|--3----------------|------------------|
--1----------------|--8----------------|--3----------------|------------------|
--1----------------|--8----------------|--3----------------|------------------|


------------------|------------------|------------------|------------------|
------------------|------------------|------------------|------------------|
------------------|------------------|------------------|------------------|
------------------|------------------|------------------|------------------|
------------------|------------------|------------------|------------------|
------------------|------------------|------------------|------------------|


------------------|------------------|--------------------|
------------------|------------------|--------------------|
------------------|------------------|--------------7--7--|
------------------|------------------|--------------------|
------------------|------------------|--------------------|
------------------|------------------|--------------------|


------------------------|------------------------|------------------------|
------------------------|------------------------|------------------------|
--7--7----5----7--7--7--|--7--7----5----7--7--7--|--7--7----5----7--7--7--|
------------------------|------------------------|------------------------|
------------------------|------------------------|------------------------|
------------------------|------------------------|------------------------|


------------------------|------------------------|-------------------|
------------------------|------------------------|-------------------|
--7--7----5----7--7--7--|--7--7----5----7--7--7--|-------------------|
------------------------|------------------------|--5----------------|
------------------------|------------------------|--5----------------|
------------------------|------------------------|--5----------------|


|--------------------|-------------------|-------------------|
|--------------------|-------------------|-------------------|
|*-------------------|-------------------|-------------------|
|*--5----------------|--1----------------|--8----------------|
|---5----------------|--1----------------|--8----------------|
|---5----------------|--1----------------|--8----------------|


--------------------||------------------------|------------------------|
--------------------||------------------------|------------------------|
-------------------*||--5--5----5----5--5--5--|--5--5----5----5--5--5--|
--3----------------*||------------------------|------------------------|
--3-----------------||------------------------|------------------------|
--3-----------------||------------------------|------------------------|


------------------------|------------------------|------------------------|
------------------------|------------------------|------------------------|
--5--5----5----5--5--5--|--5--5----5----5--5--5--|--5--5----5----5--5--5--|
------------------------|------------------------|------------------------|
------------------------|------------------------|------------------------|
------------------------|------------------------|------------------------|


------------------------|------------------------|------------------------|
------------------------|------------------------|------------------------|
--5--5----5----5--5--5--|--5--5----5----5--5--5--|--5--5----5----5--5--5--|
------------------------|------------------------|------------------------|
------------------------|------------------------|------------------------|
------------------------|------------------------|------------------------|


------------------------|------------------------|------------------------|
------------------------|------------------------|------------------------|
--7--7----5----7--7--7--|--7--7----5----7--7--7--|--7--7----5----7--7--7--|
------------------------|------------------------|------------------------|
------------------------|------------------------|------------------------|
------------------------|------------------------|------------------------|


------------------------|------------------------|------------------------|
------------------------|------------------------|------------------------|
--7--7----5----7--7--7--|--7--7----5----7--7--7--|--7--7----5----7--7--7--|
------------------------|------------------------|------------------------|
------------------------|------------------------|------------------------|
------------------------|------------------------|------------------------|


------------------------|------------------------|-------------------|
------------------------|------------------------|-------------------|
--7--7----5----7--7--7--|--7--7----5----7--7--7--|-------------------|
------------------------|------------------------|--5----------------|
------------------------|------------------------|--5----------------|
------------------------|------------------------|--5----------------|


-------------------|-------------------|-------------------|-------------------|
-------------------|-------------------|-------------------|-------------------|
-------------------|-------------------|-------------------|-------------------|
--1----------------|--8----------------|--3----------------|--5----------------|
--1----------------|--8----------------|--3----------------|--5----------------|
--1----------------|--8----------------|--3----------------|--5----------------|


-------------------|-------------------|-------------------|-------------------|
-------------------|-------------------|-------------------|-------------------|
-------------------|-------------------|-------------------|-------------------|
--1----------------|--8----------------|--3----------------|--1----------------|
--1----------------|--8----------------|--3----------------|--1----------------|
--1----------------|--8----------------|--3----------------|--1----------------|


-------------------|--------------------|--------------------|
-------------------|--------------------|--------------------|
-------------------|--------------------|--------------------|
--3----------------|--5--------7--------|--8--------3--------|
--3----------------|--5--------7--------|--8--------3--------|
--3----------------|--5--------7--------|--8--------3--------|


-------------------|-------------------|-------------------|-------------------|
-------------------|-------------------|-------------------|-------------------|
-------------------|-------------------|-------------------|-------------------|
--1----------------|--3----------------|--0----------------|--0----------------|
--1----------------|--3----------------|--0----------------|--0----------------|
--1----------------|--3----------------|--0----------------|--0----------------|


-------------------|-------------------|-------------------|-------------------|
-------------------|-------------------|-------------------|-------------------|
-------------------|-------------------|-------------------|-------------------|
--0----------------|--5----------------|--1----------------|--8----------------|
--0----------------|--5----------------|--1----------------|--8----------------|
--0----------------|--5----------------|--1----------------|--8----------------|


-------------------|-------------------|-------------------|-------------------|
-------------------|-------------------|-------------------|-------------------|
-------------------|-------------------|-------------------|-------------------|
--3----------------|--5----------------|--1----------------|--8----------------|
--3----------------|--5----------------|--1----------------|--8----------------|
--3----------------|--5----------------|--1----------------|--8----------------|


-------------------|-------------------|-------------------|-------------------|
-------------------|-------------------|-------------------|-------------------|
-------------------|-------------------|-------------------|-------------------|
--3----------------|--5----------------|--1----------------|--8----------------|
--3----------------|--5----------------|--1----------------|--8----------------|
--3----------------|--5----------------|--1----------------|--8----------------|


-------------------|-------------------|-------------------|-------------------|
-------------------|-------------------|-------------------|-------------------|
-------------------|-------------------|-------------------|-------------------|
--3----------------|--5----------------|--1----------------|--8----------------|
--3----------------|--5----------------|--1----------------|--8----------------|
--3----------------|--5----------------|--1----------------|--8----------------|


-------------------|------------------|------------------|------------------||
-------------------|------------------|------------------|------------------||
-------------------|------------------|------------------|------------------||
--3----------------|------------------|------------------|------------------||
--3----------------|------------------|------------------|------------------||
--3----------------|------------------|------------------|------------------||

 i'm tired of being what you want me to be 
feeling so faithless 
lost under the surface
i don't know what you're expecting of me
put under the pressure 
of walking in your shoes 
(caught in the undertow / just caught in the undertow)
every step that i take is another mistake to you 

i've
become so numb
i can't feel you there
become so tired
so much more aware
i'm becoming this
all i want to do
is be more like me
and be less like you 

can't you see that you're smothering me
holding too tightly 
afraid to lose control
cause everything that you thought i would be
has fallen apart right in front of you 

(caught in the undertow / just caught in the undertow)
every step that i take is another mistake to you
(caught in the undertow / just caught in the undertow)
and every second i waste is more than i can take 

but i know
i may end up failing too
but i know
you were just like me
with someone disappointed in you 

_______________________________________________________
Contribuição: Gustavo Silveira([email protected]) 
less
plus
Add to Songbook Print Version How to play lesson Submit videolesson
Click the best TAGS for this song:
None of them
Contributor: davimann Correct

If you can not find the chords or tabs you want, look at our partner E-chords. If you are a premium member, you have total access to our video lessons.

If you find a wrong Bad To Me from Linkin Park, click the correct button above.

login/signup
my songbooks
my recent views
my submits