Linkin Park

On Step Closer bass

Linkin Park

tools Ultimate Tabs

Start AutoScroll Font Size Down Font Size Up

Find us on Facebook

chords
tabs
bass
ukulele
keyboards
drums
flute
harmonica
guitar pro
video
Ultimate-Tabs

On Step Closer

Tuning: G D A C#

Intro 4x

G   |-------------------------------|
D   |-------------------------------|
A   |---------4-6-------------------|
C#  |--0--0---------8-7---0-3-------|


Verse #1  4x

G   |--------------------------------|
D   |--------------------------------|
A   |--------------------------------|
C#  |--0---0---------8-7-------------|

Repeat intro back, then do the verse #2

Verse #2  2x

G   |-------------------------------------------------------------------------|   |-------------------------|
D   |-------------------------------------------------------------------------|   |-------------------------|
A   |-------------------------------------------------------------------------|   |-------------------------|
C# |--0--0---12-12---10--10---7-7---8--8---5-5---7--7---3-3-3-3---|   |--1-1-1-1-1-1-1-1-0--|

Then back to Verse #1, Intro, and do the Verse #2  4x and--------------->at the end


Chorus 8x

G   |-----------------------------------------|
D   |-----------------------------------------|
A   |-----------------------------------------|
C#  |--1---0------1--3--0-0-0--/6-0--0--------|

Then repeat back verse#2 4x 
less
plus
Add to Songbook Print Version How to play lesson Submit videolesson
Click the best TAGS for this song:
None of them
Contributor: PartJMLR Correct

If you can not find the chords or tabs you want, look at our partner E-chords. If you are a premium member, you have total access to our video lessons.

If you find a wrong Bad To Me from Linkin Park, click the correct button above.

login/signup
my songbooks
my recent views
my submits