Linkin Park

Papercut tab

Linkin Park

Album:Live in Texas CD + DVD

Year:2003

tools Ultimate Tabs

Start AutoScroll Font Size Down Font Size Up

Find us on Facebook

chords
tabs
bass
ukulele
keyboards
drums
flute
harmonica
guitar pro video
Ultimate-Tabs

Papercut

Riff 1
eb--11----13----12----12----11----12----13----12----
Bb-----11----11----11----11----11----11----11----11-
Gb--------------------------------------------------
Db--------------------------------------------------
Ab--------------------------------------------------
Db--------------------------------------------------
Riff 2(Segunda Guitarra)
eb------------------------|-------------------------
Bb------------------------|-------------------------
Gb---------109---9---5--|-------------------------
Db--0-0-0---x-----x----5--|--3m-3m-3m---------------
Ab--0-0-0---87---7---3--|--3m-3m-3m---------------
Db--0-0-0--------------3--|--3m-3m-3m---------------
Verso
eb--------------------------------------------------
Bb--------------------------------------------------
Gb--------------------------------------------------
Db--0m-0m-0m----------------------------1m-1m-3m----
Ab--0m-0m-0m----------------------------1m-1m-3m----
Db--0m-0m-0m---8m---8m-8m-8m-8m--7m-7m--1m-1m-3m----
Continuando
eb--------------------------------------------------
Bb--------------------------------------------------
Gb--------------------------------------------------
Db--0m-0m-0m----------------------------------------
Ab--0m-0m-0m----------------------------------------
Db--0m-0m-0m---8m---8m-8m-8m-8m--7m-7m--------------
Riff 3
eb----------------------|---------------------------
Bb----------------------|---------------------------
Gb----------------------|---------------------------
Db--3m-3m-3m--0m-0m-0m--|--0m-----------------------
Ab--3m-3m-3m--0m-0m-0m--|--0m-(x16)-----------------
Db--3m-3m-3m--0m-0m-0m--|--0m-----------------------
Depois
eb--------------------------------------------------
Bb--------------------------------------------------
Gb--10-10-10-10--12-12-12-12--7-7-7-7-7-7-7-7-------
Db--10-10-10-10--12-12-12-12--7-7-7-7-7-7-7-7-------
Ab---8--8--8--8--10-10-10-10--5-5-5-5-5-5-5-5-------
Db---8--8--8--8--10-10-10-10--5-5-5-5-5-5-5-5-------
Outro
eb----------------------------|---------------------
Bb----------------------------|---------------------
Gb--10-10-10-10--12-12-12-12--|--7-7-7-7-7-7-7-7----
Db--10-10-10-10--12-12-12-12--|--7-7-7-7-7-7-7-7----
Ab---8--8--8--8--10-10-10-10--|--5-5-5-5-5-5-5-5----
Db---8--8--8--8--10-10-10-10--|--5-5-5-5-5-5-5-5----
Continuando
eb--------------------------------------------------
Bb--------------------------------------------------
Gb--------------------------------------------------
Db--3m-3m-3m---0m-0m-0m-----------------------------
Ab--3m-3m-3m---0m-0m-0m-----------------------------
Db--3m-3m-3m---0m-0m-0m----------------------------- 
less
plus
Add to Songbook Print Version How to play lesson Submit videolesson
Click the best TAGS for this song:
None of them
Contributor: musijord Correct

If you can not find the chords or tabs you want, look at our partner E-chords. If you are a premium member, you have total access to our video lessons.

If you find a wrong Bad To Me from Linkin Park, click the correct button above.

login/signup
my songbooks
my recent views
my submits