Linkin Park

Points Of Authority tab

Linkin Park

Album:Live in Texas CD + DVD

Year:2003

tools Ultimate Tabs

Start AutoScroll Font Size Down Font Size Up

Find us on Facebook

chords
tabs
bass
ukulele
keyboards
drums
flute
harmonica
guitar pro video
Ultimate-Tabs

Points Of Authority

Afine em: Db Ab Db Gb Bb Eb

x-palm mute

Intro

Eb-----7-------7---------
Bb---8---8---8---8------- Essa parte é da picape,
Gb-9-------9-------9----- mas fica legalzinho se vc 
Db----------------------- tocar assim.
Ab-----------------------
Db-----------------------


Db-22-x-3-xx-3-2-xx-22-x-3-22-x-00-x-3--
Ab-22-x-3-xx-3-2-xx-22-x-3-22-x-00-x-3--
Db-22-x-3-xx-3-2-xx-22-x-3-22-x-00-x-3--

Refrão
Gb-3---------4--
Db-2---------3--
Ab-2---------3--
Db-2---------3--

A música é só isso. Tem partes que muda o tipo de efeito, mas é só ouvir a música, pq é fácil. 
less
plus
Add to Songbook Print Version How to play lesson Submit videolesson
Click the best TAGS for this song:
None of them
Contributor: punksrom Correct

If you can not find the chords or tabs you want, look at our partner E-chords. If you are a premium member, you have total access to our video lessons.

If you find a wrong Bad To Me from Linkin Park, click the correct button above.

login/signup
my songbooks
my recent views
my submits