tools Ultimate Tabs

Start AutoScroll Font Size Down Font Size Up

Find us on Facebook

chords
tabs
bass
ukulele keyboards
drums
flute
harmonica
guitar pro
video
Ultimate-Tabs

Easy

Standard Tuning: E A D G 
Tabbed by: Lucien Farzan 

Listen good to the song for the timing and groove. 
Have Fun! 


Intro: Piano Part 

Part A 
G|----------------------1---------------------------------|  
D|-------------------11---------------------1111----------|  
A|-------1-3--3-1--3-----------1-3--3-1--3----------------|  
E|--1-4-------------------1-4-----------------------------| 

G|--------------------1-----------------------------------|  
D|-----------------11----------------------1--------------|  
A|-----1-3--3-1--3-----------1-3--3-1----3----------------|  
E|--4-------------------1-4-------------------------------| 

Part B 
G|----------------------------1---------------------------|  
D|-----------1---1h33------11-----------1---1h33----------|  
A|-------1h3---3------1--3----------1h3---3------1--------|  
E|--1-44------------------------1-4-----------------------| 

G|--------------------------------------------------------|  
D|----11-31-1-------1---1h33------11-3-4-3----6-----------|  
A|--3------3----1h3---3------1--3----------66-------------|  
E|------------4-------------------------------------------| 

Riff 
G|--1098---------|  
D|-------109811--|  
A|---------------|  
E|---------------| 

Part A1 
G|----------------------1---------------------------------|  
D|-------------------11---------------------1111----------|  
A|-------1-3--3-1--3-----------1-3--3-1--3----------------|  
E|--1-4-------------------1-4-----------------------------| 

G|--------------------1-----------------------------------|  
D|-----------------11----------------------1--------------|  
A|-----1-3--3-1--3-----------1-3--3-1----3----------------|  
E|--4-------------------1-4-------------------------------| 

Part B1 
G|----------------------------1---------------------------|  
D|-----------1---1h33------11-----------1---1h33----------|  
A|-------1h3---3------1--3----------1h3---3------1--------|  
E|--1-44------------------------1-4-----------------------| 

G|--------------------------------------------------------|  
D|----11-31-1-------1---1h33------11-3-4-3----6-----------|  
A|--3------3----1h3---3------1--3----------66-------------|  
E|------------4-------------------------------------------| 
Part C 
G|--------------------------------------------------------|  
D|--------------4-------66------------4-------66----------|  
A|------------------6-6-------------------6-6-------------|  
E|--211-2-2-122---1--------21-2---122---1-----------------| 

G|----------------------------------------7h8-5h6---------|  
D|-------------4-------66--4-3-4-3---3--------------------|  
A|-----------------6-6-------------5---4------------------|  
E|--21-2-2-122---1----------------------------------------| 

Solo Part 
G|----------------------1---------------------------------|  
D|-------------------11---------------------1111----------|  
A|-------1-3--3-1--3-----------1-3--3-1--3----------------|  
E|--1-4-------------------1-4-----------------------------| 

G|--------------------1-----------------------------------|  
D|-----------------11--------------------11---------------|  
A|-----1-3--3-1--3-----------1-3--3-1--3------------------|  
E|--4-------------------1-4-------------------------------| 

Outro Part 
G|-------------------------1--------------------------1---|  
D|--------1---1h33------11-----------1---1h33------11-----|  
A|----1h3---3------1--3----------1h3---3------1--3--------|  
E|--4------------------------1-4--------------------------| 

G|-----------------------------1--------------------------|  
D|----------1---1h33------11-3-----------1---1h33---------|  
A|------1h3---3------1--3------------1h3---3------11111---|  
E|--1-4--------------------------1-4----------------------| 

G|----------------------------2---------------------------|  
D|--------2-------2h44-----22---------2---2h44-----2222---|  
A|--22222-----2-4------2-4--------2h4---4------2-4--------|  
E|----------5-------------------5-----------------------5-| 


For corrections and suggestions mail me at: [email protected] 
less
plus
Add to Songbook Print Version How to play lesson Submit videolesson
Click the best TAGS for this song:
None of them
Contributor: becctall Correct

If you can not find the chords or tabs you want, look at our partner E-chords. If you are a premium member, you have total access to our video lessons.

If you find a wrong Bad To Me from Lionel Richie, click the correct button above.

login/signup
my songbooks
my recent views
my submits