S Lionel Richie

Hello (guitar to bass solo) tab

Lionel Richie

tools Ultimate Tabs

Start AutoScroll Font Size Down Font Size Up

Find us on Facebook

chords
tabs
bass
ukulele
keyboards
drums
flute
harmonica
guitar pro
video
Ultimate-Tabs

Hello (guitar to bass solo)

Lionel Richie  Hello 
Guitar to Bass Solo 

Standard Tuning: EADG 
Tabbed by: Lucien Farzan 



G|-----------7-9-10-7-9-5/7----------8/9-7------------| 
D|----7-9-10----------------99/10-7------------------| 
A|--7-------------------------------------------------| 
E|----------------------------------------------------| 

G|------14----16-17-14-16-12-14-9---------------------| 
D|--/14----14-----------------------------------------| 
A|----------------------------------------------------| 
E|----------------------------------------------------| 

G|--8/9-8/9-8/9\-5-5-7-9-12-7-------------------------| 
D|----------------------------------------------------| 
A|----------------------------------------------------| 
E|----------------------------------------------------| 

G|--20/21-22-21\-17/19-21-19--17\16/17\16/14\12/14----| 
D|----------------------------------------------------| 
A|----------------------------------------------------| 
E|----------------------------------------------------| 

G|------14----16-17-14-16-12-14-----------------------| 
D|--/14----14-------------------14--------------------| 
A|----------------------------------------------------| 
E|----------------------------------------------------| 

G|--14-16-17-19-21------------------------------------| 
D|----------------------------------------------------| 
A|----------------------------------------------------| 
E|----------------------------------------------------| 


For corrections and suggestions mail me at: [email protected]  
less
plus
Add to Songbook Print Version How to play lesson Submit videolesson
Click the best TAGS for this song:
None of them
Contributor: bris2484 Correct

If you can not find the chords or tabs you want, look at our partner E-chords. If you are a premium member, you have total access to our video lessons.

If you find a wrong Bad To Me from Lionel Richie, click the correct button above.

login/signup
my songbooks
my recent views
my submits